Blink 182

home > Blink 182

Dumpweed (ver. 2) Tab

Blink 182

Difficulty: nolevelnolevel

tuner correct add songbook print version text version save to e-mail
chordsukulelecavacokeyboardtabbassdrumsharmonicsflute Guitar Pro
chords

Dumpweed (ver. 2)

  		 
h=hammer on 
p=pull off 
 
 
Intro/Dist. 
 
E|--------------------------------------------------------- 
B|--------------------------------------------------------- 
G|--------------------------------------------------------- 
D|----6-6h7p6-----4------6-6h7p6-----4----6-6h7p6-----4---- 
A|--------------------------------------0------------------ 
E|--0---------7-5---5--0---------7-5--------------7-5---5-- 
 
Intro Cont./Dist 
 
E-------------------| 
B|------------------| 
G|------------------|1x 
D|----6-6h7p6--9----| 
A|--0--------------9| 
E|---------------7--| 
 
 
Riff/Dist. 
 
E|--4p0---4p0----2p0---2p0----4p0---4p0----5p0---5p0--| 
B|------0-----0------0-----0------0-----0------0-----0| 
G|----------------------------------------------------|2x 
D|----------------------------------------------------| 
A|----------------------------------------------------| 
E|----------------------------------------------------| 
 
 
Verse 1 
 
E|----------------------------------------------------- 
B|----------------------------------------------------- 
G|----------------------------------------------------- 
D|-------------44444------------44444--2-2222222--44444 
A|--2-2222222--22222--22222222--22222--0-0000000--22222 
E|--0-0000000---------00000000------------------------- 
     |.............p.m................| |.......p.m.... 
 
Verse 1 Cont. 
 
E|-----------------| 
B|-----------------| 
G|-----------------|2x 
D|--22222222--44444| 
A|--00000000--22222| 
E|-----------------| 
  ......p.m........| 
 
 
Repeat Intro 
 
 
 
Chorus/Dist. 
 
E|----------------------------------------| 
B|----------------------------------------| 
G|------------44444444--22222222--44444444|1x 
D|--22222222--44444444--22222222--44444444| 
A|--22222222--22222222--00000000--22222222| 
E|--00000000------------------------------| 
 
E|------------------------------------| 
B|------------------------------------| 
G|------------44444444--22222222--4--4|1x 
D|--22222222--44444444--22222222--4--4| 
A|--22222222--22222222--00000000--2--2| 
E|--00000000--------------------------| 
 
 
 
Repeat Riff 
 
 
 
Verse 2 
 
E|----------------------------------------------------- 
B|----------------------------------------------------- 
G|----------------------------------------------------- 
D|-------------44444------------44444--2-2222222--44444 
A|--2-2222222--22222--22222222--22222--0-0000000--22222 
E|--0-0000000---------00000000------------------------- 
     |.............p.m................| |......p.m..... 
 
Verse 2 Cont. 
 
E|-----------------| 
B|-----------------| 
G|-----------------|1x 
D|--22222222--44444| 
A|--00000000--22222| 
E|-----------------| 
  .....p.m.........| 
 
 
Repeat Intro 
 
 
 
Repeat All Of Chorus Twice 
 
 
 
Solo Part 1/P.M. 
 
E|------------------------------------------------------------- 
B|------------------------------------------------------------- 
G|------------------------------------------------------------- 
D|------------44444------------44444--22222222--44444--22222222 
A|--22222222--22222--22222222--22222--00000000--22222--00000000 
E|--00000000---------00000000---------------------------------- 
 
Solo Part 1 Cont. 
 
E|-------| 
B|-------| 
G|-------|2x 
D|--44444| 
A|--22222| 
E|-------| 
 
 
Solo Part 2/Dist. 
 
E|--4-0---0----2-0---0----4-0---0----5-0---0--| 
B|------0---0------0---0------0---0------0---0| 
G|--------------------------------------------|1x 
D|--------------------------------------------| 
A|--------------------------------------------| 
E|--------------------------------------------| 
 
E|--4-0---0----2-0---0----4-0---0----5-0---0-2| 
B|------0---0------0---0------0---0------0----| 
G|--------------------------------------------|1x 
D|--------------------------------------------| 
A|--------------------------------------------| 
E|--------------------------------------------| 
 
E|--4-0---0----2-0---0----4-0---0----5-0---0--| 
B|------0---0------0---0------0---0------0---0| 
G|--------------------------------------------|1x 
D|--------------------------------------------| 
A|--------------------------------------------| 
E|--------------------------------------------| 
 
E|--4-0---0----2-0---0----4-0---0----5-0---0--| 
B|------0---0------0---0------0---0------0---0| 
G|--------------------------------------------|1x 
D|--------------------------------------------| 
A|--------------------------------------------| 
E|--------------------------------------------| 
 
_______________________________________________________ 
Contribuição: Caio Marques TeiXeira([email protected]) 
	  

Search Paypal
auto scroll beats size up size down change color hide chords drawings
tab show chords e-chords YouTube Clip e-chords hide all tabs e-chords go to top tab