Blink 182

home > Blink 182

Does my breath smell Tab

Blink 182

Difficulty: nolevelnolevel

by fboy

tuner correct add songbook print version text version save to e-mail
chordsukulelecavacokeyboardtabbassdrumsharmonicsflute Guitar Pro
chords

Does my breath smell

Year: 1994 - Album: Cheshire Cat

  		intro 
|-----------------------| 
|-----------------------| 
|-----------------------| 
|-----7---5-----7---5---| 
|- 5---------5----------| 
|-----------------------| x2 

guitar 2 plays after second intro part of intro 


guitar 2 intro pt. 2 
|------------------------------| 
|------------------------------| 
|------------------------------| 
|--5------5------5------5------| 
|--5-(x9)-5-(x9)-5-(x9)-5-(x8)-| 
|--3------2------3------2------| 

Verse 
|----------------------------------| 
|----------------------------------| 
|------------------7-------5-------| 
|--5-------5-------7-(x8)--5-(x8)--| 
|--5-(x8)--5-(x8)--5-------3-------| 
|--3-------2-----------------------| x2 

repeat intros 

repeat Verse 

Chorus 
|----------------------------------| 
|----------------------------------| 
|------------------7-------5-------| 
|--5-------4-------7-(x8)--5-(x8)--| 
|--5-(x8)--5-(x8)--5-------3-------| 
|--3-------2-----------------------| x2 


repeat intros x2 while playing guitar 2 at same time as guitar 1 

repeat verse x2 

repeat Chorus x2 

bridge 
|---------------------------------------------------------------| 
|--------3---------------0---------------3---------------0------| 
|----0------0--------0------0--------0------0--------0-------0--| 
|---------------------------------------------------------------| 
|---------------------------------------------------------------| 
|-0--------------0---------------0--------------0---------------| 

|---------------------------------------------------------------| 
|----------3--------------0---------------3--------------0------| 
|------0------0--------0-----0--------0------0--------0-----0---| 
|--0---------------0--------------0---------------0-------------| 
|---------------------------------------------------------------| 
|---------------------------------------------------------------| 

|---------------------------------------------------------------| 
|----------3---------------0----------------3-------------0-----| 
|------0-------0-------0-------0--------0------0------0-------0-| 
|---------------------------------------------------------------| 
|-----------------------------------0--------------0------------| 
|---5--------------5--------------------------------------------| 

|--------------------------------------------------------------| 
|------0----0----0--------0-0-0-0------------------------------| 
|----0----0----0----------0-0-0-0------------------------------| 
|-------------------------x-x-x-x------------------------------| 
|--5----5----5------------5-5-5-5------------------------------| 
|--------------------------------------------------------------| 

|---------------------------| 
|---------------------------| 
|-------------------7-------| 
|--5-------5--------7--(x8)-| 
|--5--(x8)-5--(x8)--5-------| 
|--3-------2----------------| x2 

|------------------------------------| 
|------------------------------------| 
|--------------------7--------5------| 
|--5--------5--------7--(x8)--5--(x8)| 
|--5--(x8)--5--(x8)--5--------3------| 
|--3--------2------------------------| 

Outro 
|-----------------------------------------------| 
|-----------------------------------------------| 
|-----------5-----------------7--------5--------| 
|--4--------5--(x8)--5--------7--(x8)--5--(x8)--| 
|--4--(x8)--3--------5--(x8)--5--------3--------| 
|--0-----------------3--------------------------| x4 

end on 
|------| 
|------| 
|--5~--| 
|--5~--| 
|--3~--| 
|------| 

[email protected] 

	  

Search Paypal
auto scroll beats size up size down change color hide chords drawings
tab show chords e-chords YouTube Clip e-chords hide all tabs e-chords go to top tab