Blink 182

home > Blink 182

Dammit Tab

Blink 182

Difficulty: BeginnerBeginner

by luciano%29sk8%28

tuner correct add songbook print version text version save to e-mail
chordsukulelecavacokeyboardtabbassdrummharmonicsflute Guitar Pro
chords

Dammit

Year: 1997 - Album: Blink 182 - Greatest Hits

(Delonge / Hoppus / Raynor)

Key:  C More
Dammit Key GG
Dammit Key G#G#
Dammit Key AA
Dammit Key A#A#(one step down)
Dammit Key BB(half step down)
Dammit Key CC(original key)
Dammit Key C#C#(half step up)
Dammit Key DD(one step up)
Dammit Key D#D#
Dammit Key EE
Dammit Key FF
Dammit Key F#F#
  		 BLINK 182  
DAMMIT  
intro: 
e|--------------------------------------------| 
B|--------------------------------------------| 
G|--------------------------------------------| 
D|----0-0-2----0-0-2-----0-0-2-----2-2-0------|4x 
A|-3-3---------------0-0----------------------| 
E|----------3-3----------------1-1------------| 
 
e|--------------------------------------------| 
B|--------------------------------------------| 
G|--5--555--------2--222----------------------| 
D|--5--555-5--555-2--222-3--333---------------|2x 
A|--3--333-5--555-0--000-3--333---------------| 
E|---------3--333--------1--111---------------| 
      (P.M)  (P.M)  (P.M)  (P.M) 
refrão 
e|--------------------------------------------| 
B|--------------------------------------------| 
G|-55555-------22222--------------------------| 
D|-55555-55555-22222-33333--------------------|2x 
A|-33333-55555-00000-33333--------------------| 
E|-------33333-------11111--------------------| 
 
e|--------------------------------------------| 
B|--------------------------------------------| 
G|--------------------------------------------| 
D|----0-0-2----0-0-2-----0-0-2-----2-2-0------|2x 
A|-3-3---------------0-0----------------------| 
E|----------3-3----------------1-1------------| 
 
e|--------------------------------------------| 
B|--------------------------------------------| 
G|--5--555--------2--222----------------------| 
D|--5--555-5--555-2--222-3--333---------------|2x 
A|--3--333-5--555-0--000-3--333---------------| 
E|---------3--333--------1--111---------------| 
      (P.M)  (P.M)  (P.M)  (P.M) 
refrão 
e|--------------------------------------------| 
B|--------------------------------------------| 
G|-55555-------22222--------------------------| 
D|-55555-55555-22222-33333--------------------|2x 
A|-33333-55555-00000-33333--------------------| 
E|-------33333-------11111--------------------| 
 2 parte do refrão 
e|--------------------------------------------| 
B|--------------------------------------------| 
G|-5-555555------------2-222222---------------| 
D|-5-555555--5-555555--2-222222--3-333333-----|2x 
A|-3-333333--5-555555--0-000000--3-333333-----| 
E|-----------3-333333------------1-111111-----| 
 
e|--------------------------------------------| 
B|--------------------------------------------| 
G|--------------------------------------------| 
D|----0-0-2----0-0-2-----0-0-2-----2-2-0------|2x 
A|-3-3---------------0-0----------------------| 
E|----------3-3----------------1-1------------| 
essa parte e sem distorção 
e|--------------------------------------------| 
B|--------------------------------------------| 
G|-5~~~~--------------2~~~~-------------------| 
D|-5~~~~----5~~~~-----2~~~~-----3~~~~---------| 
A|-3~~~~----5~~~~-----0~~~~-----3~~~~---------| 
E|----------3~~~~---------------1~~~~---------| 
 
e|--------------------------------------------| 
B|--------------------------------------------| 
G|--------------------------------------------| 
D|----0-0-2----0-0-2-----0-0-2-----2-2-0------|4x 
A|-3-3---------------0-0----------------------| 
E|----------3-3----------------1-1------------| 
  
(ai galera valeu e tira a musica direitinho ai em )  
	  

Search Paypal
auto scroll beats size up size down change color hide chords drawings
tab show chords e-chords YouTube Clip e-chords hide all tabs e-chords go to top tab