Blink 182

home > Blink 182

Boring Tab

Blink 182

Difficulty: nolevelnolevel

tuner correct add songbook print version text version save to e-mail
chordsukulelecavacokeyboardtabbassdrummharmonicsflute Guitar Pro
chords

Boring

Year: 1997 - Album: Dude Ranch

  		 
Intro: 
 
|-----------------------------------|e 
|-----------------------------------|B 
|-----------------------------------|G  Várias vezes 
|---0--4--0--5-4-0--0--2--0--5-2-0--|D 
|-----------------------------------|A 
|-----------------------------------|E 
 
Refrão: 
 
|-----------------------------------|e 
|-----------------------------------|B 
|-------6-6-------7-7--9-9-9--------|G  4X 
|--7-7--6-6--6-6--7-7--9-9-9--------|D 
|--7-7--4-4--6-6--5-5--7-7-7--------|A 
|--5-5-------4-4--------------------|E 
 
Solo: 
 
|-----------------------------------------------|e 
|-----------------------------------------------|B 
|-----------------------------------------------|G 
|--7-7-7-6-6-6--------------6-6-6---------------|D 
|--------------7-7-7--5-5-5-------7-7-7---------|A   
|---------------------------------------5-5-5---|E 
 
 
Letra: 
 
You don't need nothin'  
And I know that you won't even try  
Don't wait for me to help you  
Too late for any of my advice 
 
No trust  
All I got is lies  
Boring  
Alright 
 
Misplaced your values  
Forgot being the importance of being right  
Don't sit there and act humble  
I've heard your story a thousand times 
 
No trust  
All I got is lies  
Boring  
Alright 
 
 
_______________________________________________________ 
Contribuição: Diego Sarmento Galvão([email protected]) 

	  

Search Paypal
auto scroll beats size up size down change color hide chords drawings
tab show chords e-chords YouTube Clip e-chords hide all tabs e-chords go to top tab