Blink 182

home > Blink 182

Asthenia Tab

Blink 182

Difficulty: ExpertExpert

tuner correct add songbook print version text version save to e-mail
chordsukulelecavacokeyboardtabbassdrummharmonicsflute Guitar Pro
chords

Asthenia

Year: 2003 - Album: Blink 182

  		 
Intro: 
Guitar uses a flanger effect 
 
e|-------------------------------------------------------------| 
B|-----------7~~~~~~~~~~------------------7~~------------------| 
G|-----7~~--------------7~~---6~7~~--7~~-~------7~------6~7~~~~| 
D|--------0~~--------------0~-----------0~------------0~-------| 
A|-------------------------------------------------------------| 
E|-------------------------------------------------------------| 
 
Verse 
e|-------------------------------------------------------------| 
B|-------------------------------------------------------------| 
G|-7-7-7-7-7-7--6-6-6-6-6-6--4-4-4-4-4-4--6-6-6-6-6-6-6-6------| 
D|-7-7-7-7-7-7--6-6-6-6-6-6--4-4-4-4-4-4--6-6-6-6-6-6-6-6------| 
A|-5-5-5-5-5-5--4-4-4-4-4-4--2-2-2-2-2-2--4-4-4-4-4-4-4-4------| 
E|-------------------------------------------------------------| 
 
Last night it came as a picture 
With a good reason, a warning sign 
This place is void of all passion 
If you can imagine it's easy if you try 
Believe me I failed this effort 
I wrote a reminder this wasn't a vision 
This time where are you Houston 
Is somebody out there will somebody listen 
 
Interlude (repeat Twice) 
e|-------------------------------------------------------------| 
B|-------------------------------------------------------------| 
G|-7-7-6-6-7-7-9-9-7-7-6-6-7-7-9-9-7-7-6-6-7-7-9-9-7-7-6-6-----| 
D|-7-7-6-6-7-7-9-9-7-7-6-6-7-7-9-9-7-7-6-6-7-7-9-9-7-7-6-6-222-| 
A|-5-5-4-4-5-5-7-7-5-5-4-4-5-5-7-7-5-5-4-4-5-5-7-7-5-5-4-4-222-| 
E|---------------------------------------------------------000-| 
 
Chorus 
 
e|---------------------------------------------------------| 
B|---------------------------------------------------------| 
G|------7--7-----7--7-----7--------7--7-----7--7-----7-----| 
D|--4-4-7--7-4-4-7--7-4-4-5-4--4-4-7--7-4-4-7--7-4-4-7-4---| 
A|--4-4-5--5-4-4-5--5-4-4-5-4--4-4-5--5-4-4-4--4-4-4-4-4---| 
E|--2-2------2-2------2-2---2--2-2------2-2------2-2---2---| 
 
Should I go back should I go back should I 
I feel alone and tired 
Should I go back should I go back should I 
I hope I won't forget you 
 
Interlude 
 
e|-------------------------------------------------------------| 
B|-----------7~~~~~~~~~~------------------7~~------------------| 
G|-----7~~--------------7~~---6~7~~--7~~-~------7~------6~7~~~~| 
D|--------0~~--------------0~-----------0~------------0~-------| 
A|-------------------------------------------------------------| 
E|-------------------------------------------------------------| 
 
Verse 
e|-------------------------------------------------------------| 
B|-------------------------------------------------------------| 
G|-7-7-7-7-7-7--6-6-6-6-6-6--4-4-4-4-4-4--6-6-6-6-6-6-6-6------| 
D|-7-7-7-7-7-7--6-6-6-6-6-6--4-4-4-4-4-4--6-6-6-6-6-6-6-6------| 
A|-5-5-5-5-5-5--4-4-4-4-4-4--2-2-2-2-2-2--4-4-4-4-4-4-4-4------| 
E|-------------------------------------------------------------| 
 
My head is made up of memories 
Most of them useless delusions 
This room is bored of rehearsal 
And sick of the boundaries 
I miss you so much 
 
Chorus 
 
e|---------------------------------------------------------| 
B|---------------------------------------------------------| 
G|------7--7-----7--7-----7--------7--7-----7--7-----7-----| 
D|--4-4-7--7-4-4-7--7-4-4-5-4--4-4-7--7-4-4-7--7-4-4-7-4---| 
A|--4-4-5--5-4-4-5--5-4-4-5-4--4-4-5--5-4-4-4--4-4-4-4-4---| 
E|--2-2------2-2------2-2---2--2-2------2-2------2-2---2---| 
 
Should I go back should I go back should I 
I feel alone and tired 
Should I go back should I go back should I 
I hope I won't forget you 
 
There are 3 interludes playing at the same time 
 
Interlude: 1 this is playing in the background before the solo 
e|--------------------------------------------------------| 
B|--------------------------------------------------------| 
G|--7-7-7-7-7-7-7-7-7-7-7-7-7-7---------------------------| 
D|--7-7-7-7-7-7-7-7-7-7-7-7-7-7---------------------------| 
A|--5-5-5-5-5-5-5-5-5-5-5-5-5-5---------------------------| 
 
Interlude: 2 FICA TOCANDO SOZINHO COM O Interlude 1 
E|--------------------------------------------------------| 
B|--------------------------------------------------------| 
G|-11-11-11-11-11-9-9-9-9----7-7-7-7-7-7-7-7-7-7-7-7-7-7--| 
D|-11-11-11-11-11-9-9-9-9----7-7-7-7-7-7-7-7-7-7-7-7-7-7--| 
A|--9-9-9-9-9-9-9-7-7-7-7----5-5-5-5-5-5-5-5-5-5-5-5-5-5--| 
E|--------------------------------------------------------| 
 
Interlude: 3 D Note is bending all time in background 
e|--------------------------------------------------------| 
B|--------------------------------------------------------| 
G|-------7-7-7-7-7-7-7-7-7-7-7-7--------------------------| 
D|-------7-7-7-7-7-7-7-7-7-7-7-7--------------------------| 
A|-------5-5-5-5-5-5-5-5-5-5-5-5-5b~~5b-5b~~~~5b~~~~------| 
E|--------------------------------------------------------| 
 
Solo 
 
e|--------------------------------------------------------| 
B|---------777788885555555-----------------7777888855555--| 
G|-7-7-7-7------------------------------------------------| 
D|-7-7-7-7-------------------2-2--7-7-7-7-----------------| 
A|-5-5-5-5-------------------2-2--5-5-5-5-----------------| 
E|---------------------------0-0--------------------------| 
 
e|--------------------------------------------------------| 
B|------------77778888555555---------------7777888855555--| 
G|----7-7-7-7----------------------7-7-7-7----------------| 
D|2-2-7-7-7-7-----------------2-2--7-7-7-7----------------| 
A|2-2-5-5-5-5-----------------2-2--5-5-5-5----------------| 
E|0-0-------------------------0-0-------------------------| 
 
e|--------------------------------------------------------| 
B|--------------------------------------------------------| 
G|-7~~----------------------------------------------------| 
D|-7~~----------------------------------------------------| 
A|-5~~----------------------------------------------------| 
E|--------------------------------------------------------| 
 
solo DE BATERIA 
A GUITARRA USA UM EFEITO DE SOM PARECIDO COM DE AEROPORTO 
 
REFRAO 
 
e|---------------------------------------------------------| 
B|---------------------------------------------------------| 
G|------7--7-----7--7-----7--------7--7-----7--7-----7-----| 
D|--4-4-7--7-4-4-7--7-4-4-5-4--4-4-7--7-4-4-7--7-4-4-7-4---| 
A|--4-4-5--5-4-4-5--5-4-4-5-4--4-4-5--5-4-4-4--4-4-4-4-4---| 
E|--2-2------2-2------2-2---2--2-2------2-2------2-2---2---| 
 
Should I go back should I go back should I 
I feel alone and tired 
Should I go back should I go back should I 
I hope I won't forget you 
 
Outro (REPETE DUAS VEZES E DPOIS USA D5) 
e|-------------------------------------------------------------| 
B|-------------------------------------------------------------| 
G|-7-7-6-6-7-7-9-9-7-7-6-6-7-7-9-9-7-7-6-6-7-7-9-9-7-7-6-6-----| 
D|-7-7-6-6-7-7-9-9-7-7-6-6-7-7-9-9-7-7-6-6-7-7-9-9-7-7-6-6-222-| 
A|-5-5-4-4-5-5-7-7-5-5-4-4-5-5-7-7-5-5-4-4-5-5-7-7-5-5-4-4-222-| 
E|---------------------------------------------------------000-| 
 
e|--------------------------------------------------------| 
B|--------------------------------------------------------| 
G|-7~~----------------------------------------------------| 
D|-7~~----------------------------------------------------| 
A|-5~~----------------------------------------------------| 
E|--------------------------------------------------------| 
 
 
 
 
_______________________________________________________ 
Contribuição: João Marcelo Ribeiro Costa Barreto([email protected]) 

	  

Full key step upFull key step up
Half key step upHalf key step up
Half key step downHalf key step down
Full key step downFull key step down
Search Paypal
auto scroll beats size up size down change color hide chords drawings
tab show chords e-chords YouTube Clip e-chords hide all tabs e-chords go to top tab