Blink 182

home > Blink 182

Alone Tab

Blink 182

Difficulty: nolevelnolevel

tuner correct add songbook print version text version save to e-mail
chordsukulelecavacokeyboardtabbassdrumsharmonicsflute Guitar Pro
chords

Alone

  		E |----------------------|--------------------------------------------------
B |----------------------|--------------------------------------------------
G |----------------------|--------------------------------------------------
D |-----3-3-2-0---5-3-2--|-----3-3-2-0-----0-----0---0----------------------
A |--0----------3--------|--0----------3-3---3-3---3------------------------
E |----------------------|--------------------------------------------------
   (REPETE 2X ESSA PARTE )    

E |----------------------|---------------------------------------------
B |----------------------|---------------------------------------------
G |----------------------|---------------------------------------------
D |-----3-3-2-0---5-3-2--|-----3-3-2-0---------------------------------
A |--0----------3--------|---0---------3-------------------------------
E |----------------------|---------------------------------------------
    (REPETE 2X TAMBEM) 

E |---------------------------------------------------------------------
B |---------------------------------------------------------------------
G |--5------------------------------------------------------------------
D |--5--5-5-5-5-5-5-5-5-5-5-5-5---7-------------------------------------
A |--3--3-3-3-3-3-3-3-3-3-3-3-3---7--7-7-7-7-7-7-7-7-7-7-7--------------
E |-------------------------------5--5-5-5-5-5-5-5-5-5-5-5--------------
                         REPETE 1X

E |---------------------------------------------------------------------
B |---------------------------------------------------------------------
G |--5-5-5------------7-7-7-7---9-9-9-9---------------------------------
D |--5-5-5--5-5-5-5---7-7-7-7---9-9-9-9---------------------------------
A |--3-3-3--5-5-5-5---5-5-5-5---7-7-7-7---------------------------------
E |---------3-3-3-3-----------------------------------------------------

E |-------------------------------------------------------------------------------------------------------------
B |-------------------------------------------------------------------------------------------------------------
G |--------------------------9-9-9-9-9-9-9-9-9-9---10-10-10-10-10-10-10-10-10-10---5-5-5-5-5-5-5-5-5-5----------
D |---7-7-7-7-7-7-7-7-7-7----9-9-9-9-9-9-9-9-9-9---10-10-10-10-10-10-10-10-10-10---5-5-5-5-5-5-5-5-5-5----------
A |---7-7-7-7-7-7-7-7-7-7----7-7-7-7-7-7-7-7-7-7----8--8--8--8--8--8--8--8--8--8---3-3-3-3-3-3-3-3-3-3----------
E |---5-5-5-5-5-5-5-5-5-5---------------------------------------------------------------------------------------

E |----------------------|--------------------------------------------------
B |----------------------|--------------------------------------------------
G |----------------------|--------------------------------------------------
D |-----3-3-2-0---5-3-2--|-----3-3-2-0-----0-----0---0----------------------
A |--0----------3--------|--0----------3-3---3-3---3------------------------
E |----------------------|--------------------------------------------------
   (REPETE 2X ESSA PARTE )    

E |---------------------------------------------------------------------
B |---------------------------------------------------------------------
G |--5------------------------------------------------------------------
D |--5--5-5-5-5-5-5-5-5-5-5-5-5---7-------------------------------------
A |--3--3-3-3-3-3-3-3-3-3-3-3-3---7--7-7-7-7-7-7-7-7-7-7-7--------------
E |-------------------------------5--5-5-5-5-5-5-5-5-5-5-5--------------
                         REPETE 1X

E |---------------------------------------------------------------------
B |---------------------------------------------------------------------
G |--5-5-5------------7-7-7-7---9-9-9-9---------------------------------
D |--5-5-5--5-5-5-5---7-7-7-7---9-9-9-9---------------------------------
A |--3-3-3--5-5-5-5---5-5-5-5---7-7-7-7---------------------------------
E |---------3-3-3-3-----------------------------------------------------

E |-------------------------------------------------------------------------------------------------------------
B |-------------------------------------------------------------------------------------------------------------
G |--------------------------9-9-9-9-9-9-9-9-9-9---10-10-10-10-10-10-10-10-10-10---5-5-5-5-5-5-5-5-5-5----------
D |---7-7-7-7-7-7-7-7-7-7----9-9-9-9-9-9-9-9-9-9---10-10-10-10-10-10-10-10-10-10---5-5-5-5-5-5-5-5-5-5----------
A |---7-7-7-7-7-7-7-7-7-7----7-7-7-7-7-7-7-7-7-7----8--8--8--8--8--8--8--8--8--8---3-3-3-3-3-3-3-3-3-3----------
E |---5-5-5-5-5-5-5-5-5-5---------------------------------------------------------------------------------------

E |----------------------|------------------------------------------------------------------
B |----------------------|------------------------------------------------------------------
G |----------------------|-----------------------------5-5-5-5-5-5-5-5-5-5-5-5--------------
D |-----3-3-2-0---5-3-2--|--7-7-7-7-7-7-7-7-7-7-7-7----5-5-5-5-5-5-5-5-5-5-5-5--------------
A |--0----------3--------|--7-7-7-7-7-7-7-7-7-7-7-7----3-3-3-3-3-3-3-3-3-3-3-3--------------
E |----------------------|--5-5-5-5-5-5-5-5-5-5-5-5-----------------------------------------
        REPETE 1X

E |------------------------------------------------------------------------------------------------------------------------------------
B |------------------------------------------------------------------------------------------------------------------------------------
G |------------------------------------------------------------------------------------------------------------------------------------
D |----------------------------------------9-9-9-9-9-9-9-9-9-9-9-9--10-10-10-10-10-10-10-10-10-10-10-10---7-7-7-7-7-7-7-7-7-7-7-7------
A |-10-10-10-10-10-10-10-10-10-10-10-10----7-7-7-7-7-7-7-7-7-7-7-7---8--8--8--8--8--8--8--8--8--8--8--8---5-5-5-5-5-5-5-5-5-5-5-5------
E |--8--8--8--8--8--8--8--8--8--8--8--8------------------------------------------------------------------------------------------------


E |-----------------------------------------------------------------------------------------------------|--------
B |-----------------------------------------------------------------------------------------------------|--------
G |--------------------------9-9-9-9-9-9-9-9-9-9---10-10-10-10-10-10-10-10-10-10---5-5-5-5-5-5-5-5-5-5--|--------
D |---7-7-7-7-7-7-7-7-7-7----9-9-9-9-9-9-9-9-9-9---10-10-10-10-10-10-10-10-10-10---5-5-5-5-5-5-5-5-5-5--|--7-----
A |---7-7-7-7-7-7-7-7-7-7----7-7-7-7-7-7-7-7-7-7----8--8--8--8--8--8--8--8--8--8---3-3-3-3-3-3-3-3-3-3--|--7-----
E |---5-5-5-5-5-5-5-5-5-5-------------------------------------------------------------------------------|--5-----
                                                                         REPETE 1X


 aee essa musica é d uns primeiros cds demo do blink 
_______________________________________________________
Contribuição: Renan Oliveira Paradella([email protected])
	  

Search Paypal
auto scroll beats size up size down change color hide chords drawings
tab show chords e-chords YouTube Clip e-chords hide all tabs e-chords go to top tab