Blindside

We Are All Going To Die

Blindside

tabs

by  VASODEBARRO

save to print version add songbook text version e-mail correct tuner
chordsukulelecavacokeyboardtabbassdrumsharmonicaflute Guitar Pro
close

there isn't a video lesson for this song

chords

We Are All Going To Die

	  		As a note, in the Chorus, the tab is kind of cramped so just to make it clear before you  
to it, they're all power chords, so 

e|------| 
B|------| 
G|------| 
D|--11--| <--- this is the 11th fret, not two 1s. just..making that clear. 
A|--11--| 
E|--9---| 


X = muted 


Intro 

e|--------------------------------------------------------------| 
B|--------------------------------------------------------------| 
G|--------------------------------------------------------------| 
D|----6--6-XXX-9---6--------------------------------------------| 
A|----6--6-XXX-9---6--------------------------------------------| 
E|----4--4-XXX-7---4--------------------------------------------| 

Verse 

e|--------------------------------------------------------------| 
B|--------------------------------------------------------------| 
G|--------------------------------------------------------------| 
D|----6--6-XXX-9--6-XXX-9--6-XXXX-444--22-----------------------| 4 times 
A|----6--6-XXX-9--6-XXX-9--6-XXXX-444--22-----------------------| 
E|----4--4-XXX-7--4-XXX-7--4-XXXX-222--00-----------------------| 

e|--------------------------------------------------------------| 
B|--------------------------------------------------------------| 
G|--------------------------------------------------------------| 
D|----3--1--3--2--6--4--4--4--4--4--4---------------------------| 2 times 
A|----3--1--3--2--6--4--4--4--4--4--4---------------------------| 
E|----1--1--1--0--4--2--2--2--2--2--2---------------------------| 


Chorus 

e|-------------------------------------------------------------------------| 
B|-------------------------------------------------------------------------| 
G|-------------------------------------------------------------------------| 
D|--11-11-9--11-11-9--11-11-9--11-11-9--6--6--6--6--6--7--4--4--4--4--4--4-| 
A|--11-11-9--11-11-9--11-11-9--11-11-9--6--6--6--6--6--7--4--4--4--4--4--4-| 
E|--9--9--7--9--9--7--9--9--7--9--9--7--4--4--4--4--4--5--2--2--2--2--2--2-| 

^^ 2 times 


Verse 

e|--------------------------------------------------------------| 
B|--------------------------------------------------------------| 
G|--------------------------------------------------------------| 
D|----6--6-XXX-9--6-XXX-9--6-XXXX-444--22-----------------------| 5 times 
A|----6--6-XXX-9--6-XXX-9--6-XXXX-444--22-----------------------| 
E|----4--4-XXX-7--4-XXX-7--4-XXXX-222--00-----------------------| 

e|--------------------------------------------------------------| 
B|--------------------------------------------------------------| 
G|--------------------------------------------------------------| 
D|----3--1--3--2--6--4--4--4--4--4--4---------------------------| 2 times 
A|----3--1--3--2--6--4--4--4--4--4--4---------------------------| 
E|----1--1--1--0--4--2--2--2--2--2--2---------------------------| 


Chorus 

e|-------------------------------------------------------------------------| 
B|-------------------------------------------------------------------------| 
G|-------------------------------------------------------------------------| 
D|--11-11-9--11-11-9--11-11-9--11-11-9--6--6--6--6--6--7--4--4--4--4--4--4-| 
A|--11-11-9--11-11-9--11-11-9--11-11-9--6--6--6--6--6--7--4--4--4--4--4--4-| 
E|--9--9--7--9--9--7--9--9--7--9--9--7--4--4--4--4--4--5--2--2--2--2--2--2-| 

^^ 4 times 


Bridge 

e|--------------------------------------------------------------| 
B|--------------------------------------------------------------| 
G|--------------------------------------------------------------| 
D|----3----------4---------1------------------------------------| 
A|----3----------4---------2------------------------------------| 
E|----1----------2---------0------------------------------------| 

e|--------------------------------------------------------------| 
B|--------------------------------------------------------------| 
G|--------------------------------------------------------------| 
D|----3----------4---------1------------------------------------| 
A|----3----------4---------2------------------------------------| 
E|----1----------2---------0------------------------------------| 

e|--------------------------------------------------------------| 
B|--------------------------------------------------------------| 
G|--------------------------------------------------------------| 
D|----3------------1--4------------------REST-------------------| 
A|----3------------X--4-----------------------------------------| 
E|----1------------0--2-----------------------------------------| 


Chorus 

e|-------------------------------------------------------------------------| 
B|-------------------------------------------------------------------------| 
G|-------------------------------------------------------------------------| 
D|--11-11-9--11-11-9--11-11-9--11-11-9--6--6--6--6--6--7--4--4--4--4--4--4-| 
A|--11-11-9--11-11-9--11-11-9--11-11-9--6--6--6--6--6--7--4--4--4--4--4--4-| 
E|--9--9--7--9--9--7--9--9--7--9--9--7--4--4--4--4--4--5--2--2--2--2--2--2-| 

^^ 4 times 

End on 

e|------| 
B|------| 
G|------| 
D|--11--| 
A|--11--| 
E|--9---| 

___________________________________________________________________ 


Lyrics 

Wait up, don't you close your eyes 
Breathe life little flower 
You've got 20 t-cells left to burn 
Please choose life with its sweet and sour 

Don't sing your last lullaby 
I don't think it's time 

We're all going to die 
But we're all not meant to die young 

Wait up, don't you close your eyes 
Love has been hidden in the shadow 
You've got the rope already tied around your neck 
One voice whispers life through your sorrow 

Don't sing your last lullaby 
I don't think its time 

We're all going to die 
But we're all not meant to die young 

This is not your lullaby 
Don't go to sleep 
Not yet 

We're all going to die 
But we're all not meant to die young 
Wait for the sunrise 


		  

See also:

tabs Paul Wilbur - Adonai tabs 12-Stones - The Way I Feel (V.2) tabs Vineyard - Senhor Te Quero - Intro tabs 12-Stones - Stay tabs Flatt & Scruggs - Cripple Creek tabs 12-Stones - In my head
e-chords

Other versions:

tabs Blindside - We Are All Going To Die
auto scroll beats size up size down change color hide chords drawings
tab show chords e-chords YouTube Clip e-chords hide all tabs e-chords go to top tab

share