Blindside

Time Will Change Your Heart

Blindside

tabs

by  VASODEBARRO

save to print version add songbook text version e-mail correct tuner
chordsukulelecavacokeyboardtabbassdrumsharmonicaflute Guitar Pro
close

there isn't a video lesson for this song

chords

Time Will Change Your Heart

Year: 2002 - Album: Silence

	  		Tuning: a half step down (Eb Ab, Db, Gb, Bb, eb) 

4x Strophe Part 1 
2x Strophe Part 2 
1x Strophe Part 3 
2x Strophe Part 2 
1x Strophe Part 3 
1x Break 
1x Chorus Part A 
1x Chorus Part B 
1x Chorus Part A 
1x Chorus Part B 
1x End Of Chorus 
4x Strophe Part 1 
2x Strophe Part 2 
1x Strophe Part 3 
2x Strophe Part 2 
1x Strophe Part 3 
1x Break 
1x Chorus Part A 
1x Chorus Part B 
1x Chorus Part A 
1x Chorus Part B 
1x End Of Chorus 
3x Bridge 
1x Only-Drums 
2x Strophe Part 2 
1x Strophe Part 3 
2x Strophe Part 2 
1x Strophe Part 3 
1x Break 
1x Chorus Part A 
1x Chorus Part B 
1x Chorus Part A 
1x Chorus Part B 
1x End Of Chorus 



Strophe Part 1: 
|-------------------------| 
|-------------------------| 
|-------------------------| 
|-4-4-2-4-5---4-4-2-4-5-2-| 
|-------------------------| 
|-------------------------| 

Strophe Part 2: 
|-------------------------| 
|-------------------------| 
|-------------------------| 
|-4-4-2-4-5---4-4-2-4-5-2-| 
|-4-4-2-4-5---4-4-2-4-5-2-| 
|-2-2-0-2-3---2-2-0-2-3-0-| 

Strophe Part 3: 
|-----------------| 
|-----------------| 
|-----------------| 
|-8-8-8-8-9-9-9-9-| 
|-8-8-8-8-9-9-9-9-| 
|-6-6-6-6-7-7-7-7-| 

Break: 

|--------------| 
|--------------| 
|--------------| 
|-2-2-2----2-2-| 
|-2-2-2----2-2-| 
|-0-0-0----0-0-| 

Chorus: 

Part A:		     Part B: 
|-----------------|  |-----------------| 
|-----------------|  |-----------------| 
|-9-------5---7---|  |-9-------5---7-8-| 
|-9-2-5-7-5-3-7-9-|  |-9-2-5-7-5-3-7-8-| 
|-7-2-5-7-3-3-5-9-|  |-7-2-5-7-3-3-5-6-| 
|---0-3-5---1---7-|  |---0-3-5---1-----| 

End of Chorus: 

|----------| 
|----------| 
|-9--------| 
|-9-2-2-4-5| 
|-7-2-2-4-5| 
|---0-0-2-3| 

Bridge: 

|-----------------|-----3-----3-----3-----3-----3---| 
|-----------------|-4-5---5-4---4-5---5-4---4-5---5-| 
|-6-6-6-6-6-6-6-6-|---------------------------------| 
|-5-5-5-5-5-5-5-5-|---------------------------------| 
|-4-4-4-4-4-4-4-4-|---------------------------------| 
|-----------------|---------------------------------| 
		  

Full key step upFull key step up
Half key step upHalf key step up
Half key step downHalf key step down
Full key step downFull key step down
hide glossary

See also:

tabs Paul Wilbur - Adonai tabs 12-Stones - The Way I Feel (V.2) tabs Vineyard - Senhor Te Quero - Intro tabs 12-Stones - Stay tabs Flatt & Scruggs - Cripple Creek tabs 12-Stones - In my head
e-chords

Other versions:

tabs Blindside - Time Will Change Your Heart
auto scroll beats size up size down change color hide chords drawings
tab show chords e-chords YouTube Clip e-chords hide all tabs e-chords go to top tab

share