Blindside

This Shoulder

Blindside

tabs

by  VASODEBARRO

save to print version add songbook text version e-mail correct tuner
chordsukulelecavacokeyboardtabbassdrumsharmonicaflute Guitar Pro
close

there isn't a video lesson for this song

chords

This Shoulder

Year: 1997 - Album: Blindside

	  		Intro/Verse 
0:00-0:35 
Riff1 
Palm Mute 
e|-------------------------------| x12 
b|-------------------------------|  
g|-------------------------------| 
d|-------------------------------| 
a|1-1-1-1-2-2-2-2-2-2-2-3-5-5-5-5| 
e|1-1-1-0-2-2-2-2-1-1-1-3-5-5-5-5| 
  

Chorus 
0:36-0:59 
Riff2  
e|---------------| x8 
b|---------------| 
g|---------------| 
d|4--3--4--3--1-1| 
a|2--3--2--3--1-1| 
e|---------------| 

Riff 1 1:00-1:23  x8 
Riff 2 1:24-1:47  x8 

Riff 3 1:48-1:59 
e|-----------------| x4  
b|-----------------| 
g|-----------------| 
d|4--3--4--3-------| 
a|2--3--2--3-5-5(5)| 
e|-----------3-3(3)| 
 (does not apply on first) 

Riff 4 2:00-2:22 
Palm Mute 
e|-------------------| x8 
b|-------------------| 
g|-------------------| 
d|-------------------| 
a|0---3---0---3---0-3| 
e|0---3---0---3---0-3| 


  
Riff 2 x9 2:22-2:48 

Riff 3 x8 

Outro 
e|------------------------|  
b|------------------------| 
g|------------------------| 
d|4--3--4--3--------------| 
a|2--3--2--3-5-5-5-5-5-5-5| 
e|-----------3-3-3-3-3-3-3| 


		  

See also:

tabs Paul Wilbur - Adonai tabs 12-Stones - The Way I Feel (V.2) tabs Vineyard - Senhor Te Quero - Intro tabs 12-Stones - Stay tabs Flatt & Scruggs - Cripple Creek tabs 12-Stones - In my head
e-chords

Other versions:

tabs Blindside - This Shoulder
auto scroll beats size up size down change color hide chords drawings
tab show chords e-chords YouTube Clip e-chords hide all tabs e-chords go to top tab

share