Blindside

Superman

Blindside

tabs

by  VASODEBARRO

save to print version add songbook text version e-mail correct tuner
chordsukulelecavacokeyboardtabbassdrumsharmonicaflute Guitar Pro
close

there isn't a video lesson for this song

chords

Superman

Year: 1997 - Album: Blindside

	  		tuning: standard 
 h=hammer on 
 p=pull off 
 x=mute note 

 G'day, this is my first attempted at tabbing so I hope it's good. 

Intro and verse: 
e|----------------------------------| 
B|----------------------------------| 
G|----------------------------------| 
D|--------0-2-5h6p7-------0-2-5-----| x6 
A|----------------------------------| 
E|-00-0--0---------00-0--0----------| 

Pre-Chorus: 
e|-------------------------------------| 
B|-------------------------------------| 
G|-------------------------------------| 
D|--------0-2-5h6p5-7--------0-2-5--5--| x4 
A|-------------------------------------| 
E|-00-0---------------00-0-------------| 

Chorus: 
e|------------------------------| 
B|------------------------------| 
G|------------------------------| 
D|-2-2-x--5-7-8---2-2-x--5-4-4--|                                            
A|-2-2-x--5-7-8---2-2-x--5-4-4--| x4 
E|-0-0-x--3-5-6---0-0-x--3-2-2--| 

e|-----------------------------------------------| 
B|-----------------------------------------------| 
G|-----------------------------------------------| 
D|-2-2-x--5-7-8-888-888-888-8-10-8--777-777-777--| 
A|-2-2-x--5-7-8-888-888-888-8-10-8--777-777-777--| 
E|-0-0-x--3-5-6-666-666-666-6-8--6--555-555-555--| 

e|----------------| 
B|-------------5--|   
G|----------5-----|   
D|-------5--------| 
A|----5-----------| 
E|-0--------------| 

verse: 
e|---------------------------------| 
B|---------------------------------| 
G|---------------------------------| 
D|--------0-2-5h6p5-7-------0-2-5--| x4 
A|---------------------------------| 
E|-00-0--0-----------00-0--0-------| 

pre-Chorus: 
e|------------------------------------| 
B|------------------------------------| 
G|------------------------------------| 
D|--------0-2-5h6p5-7-------0-2-5--5--| x4 
A|------------------------------------| 
E|-00-0--------------00-0-------------| 

Chorus: 
e|------------------------------| 
B|------------------------------| 
G|------------------------------| 
D|-2-2-x--5-7-8---2-2-x--5-4-4--| x4 
A|-2-2-x--5-7-8---2-2-x--5-4-4--|                                        
E|-0-0-x--3-5-6---0-0-x--3-2-2--| 


e|------------------------------------------| 
B|------------------------------------------| 
G|------------------------------------------| 
D|-2-2-x--5-7-8-888-888-888-8-10-8-777-777--| 
A|-2-2-x--5-7-8-888-888-888-8-10-8-777-777--| 
E|-0-0-x--3-5-6-666-666-666-6-8--6-555-555--| 

outro: 
e|-------------------------------------------------| 
B|-------------------------------------------------| 
G|-------------------------------------------------| 
d|-3-22-3-222-3-222-3-222-3-222-3-222-3-222-3-222--| 
A|-3-22-3-222-3-222-3-222-3-222-3-222-3-222-3-222--| 
E|-1-00-1-000-1-000-1-000-1-000-1-000-1-000-1-000--| 

e|-------------------------------------------------| 
B|-------------------------------------------------| 
G|-------------------------------------------------| 
D|-3-222-3-222--------3-222-3-222-3-222-3-222------| 
A|-3-222-3-222--------3-222-3-222-3-222-3-222------| 
E|-1-000-1-000--------1-000-1-000-1-000-1-000------| 

e|-------------------------------------------------| 
B|-------------------------------------------------| 
G|-------------------------------------------------| 
D|-3-222-3-222-3-222-3-222-------------------------| 
A|-3-222-3-222-3-222-3-222-------------------------| 
E|-1-000-1-000-1-000-1-000-------------------------| 

e|-------------------------------------------------| 
B|-------------------------------------------------| 
G|-------------------------------------------------| 
D|-2-2-3--2-2-3--2-2-3--2-2-3--2-2-3--2-2-3--------| 
A|-2-2-3--2-2-3--2-2-3--2-2-3--2-2-3--2-2-3--------| 
E|-0-0-1--0-0-1--0-0-1--0-0-1--0-0-1--0-0-1--------| 

e|-------------------------------------------------| 
B|-------------------------------------------------| 
G|-------------------3-3---3-3---3-3---3-3---------| 
D|-2-2-3--2-2-3------x-x---x-x---x-x---x-x---------| 
A|-2-2-3--2-2-3------1-1---1-1---1-1---1-1---------| 
E|-0-0-1--0-0-1------------------------------------| 

e|------------------------------------| 
B|------------------------------------| 
G|------------------------------------| 
D|-2-2-3--2-2-3--2-2-3----------------| 
A|-2-2-3--2-2-3--2-2-3----------------| 
E|-0-0-1--0-0-1--0-0-1----------------| 

		  

See also:

tabs Caedmon's Call - April Showers tabs The Raveonettes - Hark! The Herald Angels Sing tabs Vineyard - Vim Para Adorar-te tabs The Raveonettes - joy to the world tabs The Raveonettes - the first noel tabs Hillsong - Healer
e-chords

Other versions:

tabs Eminem - Superman tabs Fruto Sagrado - SuperMan tabs Goldfinger - Superman tabs Blindside - Superman tabs Goldfinger - Superman (ver. 2) tabs Killing Heidi - Superman / Supergirl
auto scroll beats size up size down change color hide chords drawings
tab show chords e-chords YouTube Clip e-chords hide all tabs e-chords go to top tab

share