Blindside

Nil By Mouth

Blindside

tabs

by  VASODEBARRO

save to print version add songbook text version e-mail correct tuner
chordsukulelecavacokeyboardtabbassdrumsharmonicaflute Guitar Pro
close

there isn't a video lesson for this song

chords

Nil By Mouth

	  		Intro - Strum w/Distortion          Guitar 2 - Strum (0:15)   Fill (0:23) 
e----------------------------------|-------------------------|----------------| 
g----------------------------------|-------------------------|----------------| 
b-12--11--12------16---------------|-16---14---16---12-------|--12/14~~-------| 
d--x---x---x-------x---------------|--x----x----x----x-------|---x/-x~~-------| 
a-10---9--10------14---------------|-14---12---14---10-------|--10/12~~-------| 
D----------------------------------|-------------------------|----------------| 

Verse 1 - Clean w/delay 
e----------------------------------------------------------------14-15--| 
g-------------------------------------------------------12-13-12--------| 
b-------12h14p12------------12--------12-14-12h14p12-14-----------------| 
d----------------14-12h14------14-12------------------------------------| 
a-----------------------------------------------------------------------| 
D-----------------------------------------------------------------------| 

Pre-Chorus strum 
e--------------| 
g--------------| 
b-12--11--12---| 
d--x---x---x---| 
a-10---9--10---| 
D--------------| 

Chorus w/distortion - I'm possitive that there are harmonics in 
e------------------------------|the Chorus, Jabez 
g------------------------------|help me out here! 
b----------------------5--4----|It's sounds close to the 
d--2-2--2-2--2-2--2-2--5--5----|<12> on the g string (lol) 
a--2-2--2-2--2-2--2-2--3--3----|Chorus strum 
e--------------| 
g--------------| 
b-12--11--12---| 
d--x---x---x---| 
a-10---9--10---| 
D--------------| 

Chorus w/distortion 
e------------------------------| 
g------------------------------| 
b----------------------5--4----| 
d--2-2--2-2--2-2--2-2--5--5----| 
a--2-2--2-2--2-2--2-2--3--3----| 
D--2-2--2-2--2-2--2-2----------| 

Bridge 2x strum w/distortion 
e---------------------------------------------| 
g---------------------------------------------| 
b-9-11--12----9-11--7---9-11--12--12--14------| 
d-x--x---x----x--x--x---x--x---x---x---x------| 
a-7--9--10----7--9--5---7--9--10--10--12------| 
D---------------------------------------------| 

Strum guitar 1                      Guitar 2 - Strum	  
e----------------------------------|-------------------------| 
g----------------------------------|-------------------------| 
b-12--11--12------16---------------|-16---14---16---12-------| 
d--x---x---x-------x---------------|--x----x----x----x-------| 
a-10---9--10------14---------------|-14---12---14---10-------| 
D----------------------------------|-------------------------| 

Pre-Chorus/Chorus Ending strum 
e--------------| 
g--------------| 
b-12--11--12---| 
d--x---x---x---| 
a-10---9--10---| 
D--------------| 
                           (This little bit below echos 2-3x) 
Outro - Clean w/delay                  \|/ 
e--<12>---------------------------------------------15--------| 
g--<12>--12h13-12------12/13-12-----12-13-12------------------| 
b--<12>-----------14-------------14----------14-12------------| 
d-------------------------------------------------------------| 
a-------------------------------------------------------------| 
D-------------------------------------------------------------| 

		  

See also:

tabs Paul Wilbur - Adonai tabs 12-Stones - The Way I Feel (V.2) tabs Vineyard - Senhor Te Quero - Intro tabs 12-Stones - Stay tabs Flatt & Scruggs - Cripple Creek tabs 12-Stones - In my head
e-chords

Other versions:

tabs Blindspott - Nil by mouth tabs Blindside - Nil By Mouth
auto scroll beats size up size down change color hide chords drawings
tab show chords e-chords YouTube Clip e-chords hide all tabs e-chords go to top tab

share