Blindside

December In Sweden

Blindside

tabs

by  VASODEBARRO

save to print version add songbook text version e-mail correct tuner
chordsukulelecavacokeyboardtabbassdrumsharmonicaflute Guitar Pro
close

there isn't a video lesson for this song

chords

December In Sweden

Year: 2003 - Album: Pitiful

	  		
Verse 1 Riff:  

4/4  
e|--------------------------------------------------------------------------|  
B|----------||--------||-----------------||--------||-88888----||-----------|  
G|-44444xxxx||xxxxxxxx||4^(1/2)_ 2/4-4444||xxxxxxxx||55555-xxxx||xxxxxxxx---|  
D|-44444xxxx||xxxxxxxx||4^(1/2)_ 2/4-4444||xxxxxxxx||55555-xxxx||xxxxxxxx---|  
A|--------------------------------------------------------------------------|  
E|--------------------------------------------------------------------------|  

e|------------------------------------------------------------|  
B|-------------------||----------||-88888------||-------------|  
G|-4^(1/2)_ 2/4-4444-||-xxxxxxxx-||-55555-xxxx-||-xxxxxxxx----|  
D|-4^(1/2)_ 2/4-4444-||-xxxxxxxx-||-55555-xxxx-||-xxxxxxxx----|  
A|------------------------------------------------------------|  
E|------------------------------------------------------------|  

e|------------------------------------------------------------|  
B|-------------------||----------||-88888------||-------------|  
G|-4^(1/2)_ 2/4-4444-||-xxxxxxxx-||-55555-xxxx-||-xxxxxxxx----|  
D|-4^(1/2)_ 2/4-4444-||-xxxxxxxx-||-55555-xxxx-||-xxxxxxxx----|  
A|------------------------------------------------------------|  
E|------------------------------------------------------------|  

e|----------------------------------|  
B|----------------------------------|  
G|-4^(1/2)_ 2/4-4444-||-xxxxxxxx----|  
D|-4^(1/2)_ 2/4-4444-||-xxxxxxxx----|  
A|----------------------------------|  
E|----------------------------------|  


Pre-Chorus 1 Riff:  
4/4  
e|------------------||-(bend the 4th up and then back--------------||  
B|------------------||----------for a 4-5-4 effect)----------------||  
G|-4542454245424542-||-4_^(1/2)24-4_^(1/2)24-4_^(1/2)24-4_^(1/2)24-||  
D|-4542454245424542-||-4_^(1/2)24-4_^(1/2)24-4_^(1/2)24-4_^(1/2)24-||  
A|------------------||---------------------------------------------||  
E|------------------||---------------------------------------------||  

e|-----------------------||  
B|-----------------------||  
G|-444-555-777-999-44-55-||  
D|-444-555-777-999-44-55-||  
A|-----------------------||  
E|-----------------------||  

Chorus Riff 1:  
4/4  
e|-----------||--------3__-||-------------||-3___---------||  
B|-----------||----7___3__-||-------------||-3___7___-----||  
G|-----------||-4__4___----||-------------||-----4___7___-||  
D|-4--44--44-||-2__--------||-3--33----33-||---------5___-||  
A|-2--22--22-||------------||-3--33----33-||--------------||  
E|-0--00--00-||------------||-1--11----11-||--------------||  

e|-------------------------------------------------------|  
B|-------------------------------------------------------|  
G|-------------------------------------------------------|  
D|-88888888-||-88888888-||-77777777-||-10101012121299----|  
A|-88888888-||-88888888-||-77777777-||-10101012121299----|  
E|-66666666-||-66666666-||-55555555-||--8-8-810101077----|  

e|-----------||--------3__-||-------------------------||  
B|-----------||----7___3__-||-------------------------||  
G|-----------||-4__4___----||-------------------------||  
D|-4--44--44-||-2__--------||-----2+3-----2+3-3___----||  
A|-2--22--22-||------------||-3_------3_------3_2+3___||  
E|-0--00--00-||------------||-1_------1_------1___----||  

e|-------------------------------------------------|  
B|-------------------------------------------------|  
G|-------------------------------------------------|  
D|-88888888-||-88888888-||-77777777-||-10_______---|  
A|-88888888-||-88888888-||-77777777-||-10_______---|  
E|-66666666-||-66666666-||-55555555-||-8-_______---|  


Verse 2 Riff:  
4/4  
e|---------------------------------------------------------------------------|  
B|----------||----||-------------------||----------||-88888-----||-----------|  
G|-44444----||----||-4^(1/2)_ 2/4-4444-||-xxxxxxxx-||-55555-xxxx||xxxxxxxx---|  
D|-44444----||----||-4^(1/2)_ 2/4-4444-||-xxxxxxxx-||-55555-xxxx||xxxxxxxx---|  
A|---------------------------------------------------------------------------|  
E|---------------------------------------------------------------------------|  

e|--------------------------------------------------------|  
B|-------------------||--------||-88888------||-----------|  
G|-4^(1/2)_ 2/4-4444-||xxxxxxxx||-55555-xxxx-||xxxxxxxx---|  
D|-4^(1/2)_ 2/4-4444-||xxxxxxxx||-55555-xxxx-||xxxxxxxx---|  
A|--------------------------------------------------------|  
E|--------------------------------------------------------|  

e|---------------------------------------------------------------------|  
B|-------------------||----------||-88888---------||-------------------|  
G|-4^(1/2)_ 2/4-4444-||-xxxxxxxx-||-55555---------||-------------------|  
D|-4^(1/2)_ 2/4-4444-||-xxxxxxxx-||-55555---------||-------------------|  
A|---------------------------------------------------------------------|  
E|---------------------------------------------------------------------|  

e|----------------------------------|  
B|----------------------------------|  
G|-4^(1/2)_ 2/4-4444-||-xxxxxxxx----|  
D|-4^(1/2)_ 2/4-4444-||-xxxxxxxx----|  
A|----------------------------------|  
E|----------------------------------|  


Pre-Chorus 2 Riff:  
4/4  
e|------------------||-(bend the 4th up and then back--------------||  
B|------------------||----------for a 4-5-4 effect)----------------||  
G|-4542454245424542-||-4_^(1/2)24-4_^(1/2)24-4_^(1/2)24-4_^(1/2)24-||  
D|-4542454245424542-||-4_^(1/2)24-4_^(1/2)24-4_^(1/2)24-4_^(1/2)24-||  
A|------------------||---------------------------------------------||  
E|------------------||---------------------------------------------||  

e|-----------------||-----------------------||  
B|-----------------||-----------------------||  
G|-4542454245424542||-444-555-777-999-77-55-||  
D|-4542454245424542||-444-555-777-999-77-55-||  
A|-----------------||-----------------------||  
E|-----------------||-----------------------||  


Chorus Riff 2:  
4/4  
e|-----------||--------3__-||-------------||-3___---------||  
B|-----------||----7___3__-||-------------||-3___7___-----||  
G|-----------||-4__4___----||-------------||-----4___7___-||  
D|-4--44--44-||-2__--------||-3--33----33-||---------5___-||  
A|-2--22--22-||------------||-3--33----33-||--------------||  
E|-0--00--00-||------------||-1--11----11-||--------------||  

e|-------------------------------------------------------|  
B|-------------------------------------------------------|  
G|-------------------------------------------------------|  
D|-88888888-||-88888888-||-77777777-||-10101012121299----|  
A|-88888888-||-88888888-||-77777777-||-10101012121299----|  
E|-66666666-||-66666666-||-55555555-||--8-8-810101077----|  

e|-----------||--------3__-||-------------------------||  
B|-----------||----7___3__-||-------------------------||  
G|-----------||-4__4___----||-------------------------||  
D|-4--44--44-||-2__--------||-----2+3-----2+3-3___----||  
A|-2--22--22-||------------||-3_------3_------3_2+3___||  
E|-0--00--00-||------------||-1_------1_------1___----||  

e|---------------------------------------------------------|  
B|---------------------------------------------------------|  
G|---------------------------------------------------------|  
D|-88888888-||-88888888-||-77777777-||-1010101212121414----|  
A|-88888888-||-88888888-||-77777777-||--x-x-x-x-x-x-x-x----|  
E|-66666666-||-66666666-||-55555555-||--8-8-81010101212----|  

Pre-Bridge Riff:  
4/4  
e|---------------------------------------------------------------------------------|  
B|---------------------------------------------------------------------------------|  
G|---9----9_--9---9-||||--10--10_--10--10_--10--10_--10--10_-----------------------|  
D|---9----9_--9---9-||||--10--10_--10--10_--10--10_--10--10_-----------------------|  
A|-0-7-0-7_-0-7-0-7-||||-0-8-0-8_-0-8-0-8_-0-8-0-8_-0-8-0-8_-----------------------|  
E|-0-7-0-7_-0-7-0-7-||||-0-8-0-8_-0-8-0-8_-0-8-0-8_-0-8-0-8_-----------------------|  

e|---------------------------------------------------------------|  
B|---------------------------------------------------------------|  
G|---9---9_---9---9-||||--10--10_--10--10_--10--10_--10--10___---|  
D|---9---9_---9---9-||||--10--10_--10--10_--10--10_--10--10___---|  
A|-0-7-0-7_-0-7-0-7-||||-0-8-0-8_-0-8-0-8_-0-8-0-8_-0-8-0-8___---|  
E|-0-7-0-7_-0-7-0-7-||||-0-8-0-8_-0-8-0-8_-0-8-0-8_-0-8-0-8___---|  


Bridge Riff:  
4/4  
e|----------------------------------------------------------------------|  
B|----------------------------------------------------------------------|  
G|----16^(1/2)----16^(1/2)----||-16^(1/2)----16^(1/2)----16^(1/2)-------|  
D|-14-14^(1/2)-14-14^(1/2)-14-||-14^(1/2)-14-14^(1/2)-14-14^(1/2)-14----|  
A|----------------------------------------------------------------------|  
E|----------------------------------------------------------------------|  

e|----------------------------------------------------------------------|  
B|----------------------------------------------------------------------|  
G|----17^(1/2)----17^(1/2)----||-17^(1/2)----17^(1/2)----17^(1/2)-------|  
D|-15-15^(1/2)-15-15^(1/2)-15-||-15^(1/2)-15-15^(1/2)-15-15^(1/2)-15----|  
A|----------------------------------------------------------------------|  
E|----------------------------------------------------------------------|  

e|----------------------------------------------------------------------|  
B|----------------------------------------------------------------------|  
G|----15^(1/2)----15^(1/2)----||-15^(1/2)----15^(1/2)----15^(1/2)-------|  
D|-15-15^(1/2)-15-15^(1/2)-15-||-15^(1/2)-15-15^(1/2)-15-15^(1/2)-15----|  
A|----------------------------------------------------------------------|  
E|----------------------------------------------------------------------|  

e|----------------------------------------------|  
B|----------------------------------------------|  
G|----14^(1/2)----14^(1/2)----||-14^(1/2)__^----|  
D|-14-14^(1/2)-14-14^(1/2)-14-||-14^(1/2)__^----|  
A|----------------------------------------------|  
E|----------------------------------------------|  


Chorus 3 Riff:  
4/4  
e|-----------||--------3__-||-------------------------||  
B|-----------||----7___3__-||-------------------------||  
G|-----------||-4__4___----||-------------------------||  
D|-4--44--44-||-2__--------||-----2+3-----2+3-3___----||  
A|-2--22--22-||------------||-3_------3_------3_2+3___||  
E|-0--00--00-||------------||-1_------1_------1___----||  

e|---------------------------------------------------------|  
B|---------------------------------------------------------|  
G|---------------------------------------------------------|  
D|-88888888-||-88888888-||-77777777-||-1010101212121414----|  
A|-88888888-||-88888888-||-77777777-||--x-x-x-x-x-x-x-x----|  
E|-66666666-||-66666666-||-55555555-||--8-8-81010101212----|  

Outro:  
4/4  
e|-----------------------------------------------------|  
B|-----------------------------------------------------|  
G|-----------------------------------------------------|  
D|-4--44--44--4--44--44--4--4--44--44--4--44--44--4----|  
A|-2--22--22--2--22--22--2--2--22--22--2--22--22--2----|  
E|-0--00--00--0--00--00--0--0--00--00--0--00--00--0----|  

e|--------------------------------------------------|  
B|--------------------------------------------------|  
G|--------------------------------------------------|  
D|-4--44--44--4--44--44--4--4--44--44--4--44--44----|  
A|-2--22--22--2--22--22--2--2--22--22--2--22--22----|  
E|-0--00--00--0--00--00--0--0--00--00--0--00--00----|  


		  

See also:

tabs Paul Wilbur - Adonai tabs 12-Stones - The Way I Feel (V.2) tabs Vineyard - Senhor Te Quero - Intro tabs 12-Stones - Stay tabs Flatt & Scruggs - Cripple Creek tabs 12-Stones - In my head
e-chords

Other versions:

tabs Blindside - December In Sweden
auto scroll beats size up size down change color hide chords drawings
tab show chords e-chords YouTube Clip e-chords hide all tabs e-chords go to top tab

share