Blind Guardian

The Minstrel

Blind Guardian

tabs

by  VAN_FALCO

save to print version add songbook text version e-mail correct tuner
chordsukulelecavacokeyboardtabbassdrumsharmonicaflute Guitar Pro
close

there isn't a video lesson for this song

chords

The Minstrel

Year: 1999 - Album: Nightfall in Middle-Earth

	  		Legenda: 
 
~ - vibrato 
h - hammer 
sl. - slide 
 
-------------------------------------------------------------------------- 
-------------------------------------------------------------------------- 
 
  Intro (tocando 2 vezes) 
 Acústico 
E-------------------!--------------!------------!----------------------} 
B-------------------!--------------!------------!----------------------} 
G*-10---8-----------!-----------10-!-8----------!-----------10~-------- 
D*--------11-10-8~--!---8-10-11----!---11-10-8~-!---8-10-11------------ 
A-------------------!--------------!------------!----------------------} 
E-------------------!--------------!------------!----------------------} 
 
Rítmo 
E---6---------------!---(6)--------!--(6)-------!------------6---------} 
B---6---------------!---(6)--------!--(6)-------!------------6---------} 
G*--6---------------!---(6)--------!--(6)-------!------------6--------- 
D*--8---------------!---(8)--------!--(8)-------!------------8--------- 
A---8---------------!---(8)--------!--(8)-------!------------8---------} 
E---6---------------!---(6)--------!--(6)-------!------------6---------} 
 
Acústico     fim da Intro 
E-----------} 
B----9------} 
G------10~-*} 
D-11-------*} 
A-----------} 
E-----------} 
 
Rítmo        fim da Intro 
E-(6)-------} 
B-(6)-------} 
G-(6)------*} 
D-(8)------*} 
A-(8)-------} 
E-(6)-------} 
 
Riff principal    Rítmo 
E--6---------9------4------------2------6------9-----4--------------} 
B--6---------9------4------------2------6------9-----4--------------} 
G--6--------10------5------------3------6-----10-----5--------------} 
D--8--------11------6------------4------8-----11-----6--------------} 
A--8--------11------6------------4------8-----11-----6--------------} 
E--6---------9------4------------2------6------9-----4--------------} 
So I stand still in front of the crowd excited faces what will be 
 
Riff principal    Acústico 
E-------------------------------------------------------------------} 
B--11---------------------------------------------------------------} 
G10----13---10-----------------h--------------8-10-------------h---- 
D----------------11-13----15-13-15-10---10-11------11-10--11-11-13--} 
A-------------------------------------------------------------------} 
E-------------------------------------------------------------------} 
 
Rítmo                                                Fim do riff principal 
E--2----------6-----------9------2---------------6-----------9------2------------} 
B--2----------6-----------9------2---------------6-----------9------2------------} 
G--3----------6----------10------3---------------6----------10------3------------} 
D--4----------8----------11------4---------------8----------11------4------------} 
A--4----------8----------11------4---------------8----------11------4------------} 
E--2----------6-----------9------2---------------6-----------9------2------------} 
  next      I still don't have a clue          I still don't have a clue 
 
Acústico                                            Fim do riff principal 
E--------------------------------------------------------------------------------} 
B--------------------------------------------------------------------------------} 
G--------------------------------sl.--------------------------------sl.----------} 
D--10-------10-11---10----8--11-8/10-10-11-10--10-11---10----8--11-8/10-10-11-10-} 
A--------------------------------------------------------------------------------} 
E--------------------------------------------------------------------------------} 
 
 
 
Se vocę tiver alguma dúvida, envie um e-mail para: [email protected] 
 

		  

See also:

tabs Helloween - A tale that wasn't right tabs Scorpions - Hurricane 2001(Solo Acoustica) tabs Scorpions - New Generation tabs Blind Guardian - Valhalla tabs Helloween - Future World tabs Scorpions - Believe In Love
e-chords

Other versions:

tabs Blind Guardian - The Minstrel
auto scroll beats size up size down change color hide chords drawings
tab show chords e-chords YouTube Clip e-chords hide all tabs e-chords go to top tab

share