Blind Boy Fuller

Careless Love

Blind Boy Fuller

tabs Beginner beginner

by  ROWANE

save to print version add songbook text version e-mail correct tuner
chordsukulelecavacokeyboardtabbassdrumsharmonicaflute Guitar Pro
close

there isn't a video lesson for this song

chords

Careless Love

	  		  
                          E7                A                  E7                
E||--------------------|--------------------------|------------------0--------|  
B||--1b----------------|------------3b---1h-2-----|---------------------3--2--|  
G||---------------2----|--1--------------------2--|-------2----0h-1-----------|  
D||--------------------|-------2---------1--2-----|---------------------2-----|  
A||--------------------|--------------------------|--0------------------------|  
E||--------------------|-------0------------------|------------0--------------|  
  
  
  A/C#                     D7                     Adim7                      
-------5--3-------------|-------2--------------|-----5--------5-----------|  
------------------------|------------1---------|--4--------------4--------|  
--2---------------------|-----------------2----|--------5-----------------|  
-------2----------------|--0-------------------|--4--------4--------4-----|  
--4----------0----3--4--|----------------------|--------------------------|  
------------------------|----------------------|-----------------------0--|  
  
  
  A                       A/C#                    E                          
--0--------0-----------|-------5---------------|-----5p-4--0--5p-4--0-----|  
--------------3--1--2--|----------2------------|-----------------------1--|  
-----------------------|--2--------------------|-----------------------1/-|  
--2-----2--------------|-------2---------------|--------------------------|  
-----0--------0--------|--4----------0----0----|--------------------------|  
-----------------------|-----------------------|--0-----------------------|  
  
  
  A                                                                        
------------------------|------------------------|----------------------|  
--2--2p-0---------------|-------3b---1p-0--------|-------1b--------3b---|  
--2-----------2---------|------------------2-----|------------2---------|  
--------0---------------|------------------------|----------------------|  
-----------4------------|--0---------------------|--0-------------------|  
-------------------0----|---------------------0--|----------------------|  
  
  
                        E7                         A/C#      E7                   
-----------0---------|--------------------------|------------------0-----------|  
--1------------------|------------3----1h-2-----|---------------------3--1h-2--|  
----------------2----|--1--------------------2--|------------0h-1--------------|  
---------------------|-------2------------------|-------2-------------2--------|  
---------------------|--------------------------|--4---------------------------|  
---------------------|-------0------------------|------------0-----------------|  
  
  
  A/C#                    
-------5--5-----------||  
----------------------||  
--2-------------------||  
-------2--------------||  
--4----------0--------||  
----------------------||  
  


		  

Full key step upFull key step up
Half key step upHalf key step up
Half key step downHalf key step down
Full key step downFull key step down
hide glossary

See also:

tabs Rival Sons - Keep On Swinging tabs Rival Sons - Memphis Sun tabs John Lee Hooker - Funky mabel tabs Rival Sons - Where I've Been tabs Allman Brothers Band - Blue sky tabs Jerry Roll Morton - Dead man blues
e-chords

Other versions:

tabs Blind Boy Fuller - Careless Love
auto scroll beats size up size down change color hide chords drawings
tab show chords e-chords YouTube Clip e-chords hide all tabs e-chords go to top tab

share