BlessTheFall

Skinwalkers

BlessTheFall

tabs nolevel nolevel

by  BRUNBLAZKOWSKI

save to print version add songbook text version e-mail correct tuner
chordsukulelecavacokeyboardtabbassdrumsharmonicaflute Guitar Pro
close

there isn't a video lesson for this song

chords

Skinwalkers

	  		
Intro/Lead Riff 
0:15 
e|---------------------------------------------------------------------------| 
B|---------------------------------------------------------------------------| 
G|-------------------10p7---------------------------------------------10p7---| 
D|-------7-------7-7-----7p0--------7-------7-------------7-------7-7-----7p0| 
A|---3s5-----3s5----------------3s5-----3s5---0-1-1---3s5-----3s5------------| 
D|-0-------0------------------0-------0-------0-1-1-0-------0----------------| 

e|-------------------| 
B|--------------6~---| 
G|--------------9~---| 
D|-88888-111--0------| 
A|-88888-111--0------| 
D|-88888-111--0------| 

e|---------------------------------------------------------------------------| 
B|---------------------------------------------------------------------------| 
G|------7-------7---10p7-----------7-------7-------------7-------7---10p7----| 
D|--1s7-7---1s7-7-7-----7p0----1s7-7---1s7-7---------1s7-7---1s7-7-7-----7p0-| 
A|-------------------------------------------0-1-1---------------------------| 
D|-0------0------------------0-------0-------0-1-1-0-------0-----------------| 

e|----------------| 
B|----------------| 
G|----------------| 
D|-88888-1111-----| 
A|-88888-1111-----| 
D|-88888-1111-----| 


Chorus x2 
0:34 
e|-----------------------------------------------------17t---------17t-------| 
B|-------------------------------------------------15t----18t--15t-----18t---| 
G|----s14-----s14----------s14----s14-12-12-14-14----------------------------| 
D|-00-s-x--00-s-x----------s-x----s-x--x--x--x--x----------------------------| 
A|-00-s12--00-s12--0000-00-s12-00-s12-10-10-12-12----------------------------| 
D|-00------00------0000-00-----00--------------------------------------------| 



e|-------------------------------------------------------| 
B|-------------------------------------------------------| 
G|-----------------------------------7-------7--7-7------| 
D|-------7-------7-7-7---x2------1s7-7---1s7-7-7-7----x2-| 
A|---3s5-----3s5--5-5------------------------------------| 
D|-0-------0-------------------0--------0----------------| 


Breakdown 
1:02 
e|---------------------------------------------------------------------------| 
B|---------------------------------------------------------------------------| 
G|---------------------------10p7-----------------9~-----------------10p7----| 
D|-------------------------7-----7p0-------------12~---------------7------7p0| 
A|-0-00-00---00-0-00-0-00-------------00-0-00--0-----00-0-00-0-00------------| 
D|-0-00-00---00-0-00-0-00-------------00-0-00--0-----00-0-00-0-00------------| 

(Not EXACT pattern, just guidelines..) 


Theres a cool riff here, similar to the starting riff, just with more open  
notes inbetween.. Don't have time to perfect it, so you'll have to refer to  
the video, sorry! 
1:12 
e|-------------------------------------------| 
B|-------------------------------------------| 
G|-------------------------------------------| 
D|--------?----------------------------------| 
A|--------?----------------------------------| 
D|--------?----------------------------------| 


e|--------------------| 
B|--------------------| 
G|--------------------| 
D|-8888888-555555-----| 
A|-8888888-555555-----| 
D|-8888888-555555-----| 


Chorus x2 
1:26 
e|-----------------------------------------------------17t---------17t-------| 
B|-------------------------------------------------15t----18t--15t-----18t---| 
G|----s14-----s14----------s14----s14-12-12-14-14----------------------------|   
D|-00-s-x--00-s-x----------s-x----s-x--x--x--x--x----------------------------| 
A|-00-s12--00-s12--0000-00-s12-00-s12-10-10-12-12----------------------------| 
D|-00------00------0000-00-----00--------------------------------------------| 

Play the chorus twice, then play this.. 
1:44 
e|---------------------------------------------------------------------------| 
B|---------------------------------------------------------------------------| 
G|---14-14-14-14----14-14-14-14-14-14-14------9-9-9-9-9-9-101010101010-------| 
D|-0--x--x--x--x--0--x--x--x--x--x--x--x--x2--x-x-x-x-x-x-x-x-x-x-x-x-----x2-| 
A|-0-12-12-12-12--0-12-12-12-12-12-12-12------7-7-7-7-7-7-8-8-8-8-8-8--------| 
D|-0--------------0----------------------------------------------------------| 


Bridge x2 
1:54 
e|---------------------------------------------------------------------------| 
B|---------------------------------------------------------------------------| 
G|---------------------------------------------------------------------------| 
D|-17p0-x8-19p0-x3-15p0-x5---17p0-x8-14p0-x3-10p0-x5-------------------------| 
A|---------------------------------------------------------------------------| 
D|---------------------------------------------------------------------------| 


"There's places I have been.." 
2:14 
e|-------------------------| 
B|-------------------------| 
G|-------------------------| 
D|--8------0------3--------| 
A|--8-x32--0-x16--3-x16----| 
D|--8------0------3--------| 
P.M .      .      . 

End on 
e|----------| 
B|----------| 
G|----------| 
D|-8~-------| 
A|-8~-------| 
D|-8~-------| 

Fade in each note 
2:34 
e|-----------------------------------17t-------------------------------------| 
B|---------------------------------------------------------------------------| 
G|-----------------------14~----17~------------------------------------------| 
D|---9~-----7~-----7~--------------------------------------------------------| 
A|--12~----10~----10~--------------------------------------------------------| 
D|---------------------------------------------------------------------------| 


2:54 
e|--17t-------17t-15t---17t-----------17t-13t-15t----------------------------| 
B|------15t-----------------15t-13t------------------------------------------| 
G|---------------------------------------------------------------------------| 
D|---------------------------------------------------------------------------| 
A|---------------------------------------------------------------------------| 
D|---------------------------------------------------------------------------| 


e|--17t-------17t-15t---17t--------------------------------------------------| 
B|------15t-----------------15t-13t---------------------15t-17t-18t----------| 
G|------------------------------------14t-12t--14t-12t-----------------------| 
D|---------------------------------------------------------------------------| 
A|---------------------------------------------------------------------------| 
D|---------------------------------------------------------------------------| 

Strumming pattern you can figure out, its all 0s 
3:20 
e|---------------------------------------------------------------------------| 
B|---------------------------------------------------------------------------| 
G|---------------------------------------------------------------------------| 
D|-0-------------------------------------------------------------------------| 
A|-0-------------------------------------------------------------------------| 
D|-0-------------------------------------------------------------------------| 


Outro x2  
3:40 
e|----------------------------------------| 
B|----------------------------------------| 
G|-14~--12~--10~---9~-10~-----------------| 
D|-15~--14~--12~--10~-12~-----------------| 
A|----------------------------------------| 
D|----------------------------------------| 


 
		  

See also:

tabs All American Rejects - Gives You Hell tabs That 70's show - That 70's show theme song tabs A Day to Remember - All I Want tabs Panic! At The Disco - Build God Then We'll Talk tabs Johan Sebastian Bach - Toccata em Sol. tabs Danny Elfman - Simpsons
e-chords

Other versions:

tabs BlessTheFall - Skinwalkers
auto scroll beats size up size down change color hide chords drawings
tab show chords e-chords YouTube Clip e-chords hide all tabs e-chords go to top tab

share with facebook