BlessTheFall

Meet Me At The Gates

BlessTheFall

tabs Easy easy

by  EDUCASTILHO

save to print version add songbook text version e-mail correct tuner
chordsukulelecavacokeyboardtabbassdrumsharmonicaflute Guitar Pro
close

there isn't a video lesson for this song

chords

Meet Me At The Gates

	  		

INTRO 
e|-17-----17-----17-----17-----17----17-15-----15-----15-----15-----15----15| 
B|---15-----15-----15-----15-----15-------15-----15-----15-----15-----15----| 
G|-----14-----14-----14-----14-----14-------14-----14-----14-----14-----14--| 
D|--------------------------------------------------------------------------| 
A|--------------------------------------------------------------------------| 
D|--------------------------------------------------------------------------| 
 |                                                                          | 
e|-18-----18-----18-----18-----18----18-20-----20-----20-----20------22b----| 
B|---15-----15-----15-----15-----15-------15-----15-----15-----15-----------| 
G|-----14-----14-----14-----14-----14-------14-----14-----14-----14---------| 
D|--------------------------------------------------------------------------| 
A|--------------------------------------------------------------------------| 
D|--------------------------------------------------------------------------| 

CHORUS 
e|--------------------------------------------------------------------------| 
B|--------------------------------------------------------------------------| 
G|-----------------------------------------------14-14-14-14/15-15-15-------| 
D|-0-0-0-0-0-0-0--0-0-0--0-0-0-0--0-0-0-0-0-0-0--x--x--x--x--x--x--x--------| 
A|-0-0-0-0-0-0-0--0-0-0--0-0-0-0--0-0-0-0-0-0-0--12-12-12-12/13-13-13-------| 
D|-0-0-0-0-0-0-0--0-0-0--0-0-0-0--0-0-0-0-0-0-0-----------------------------| 
 |                                                                          | 
e|----------------------------------------------------------------------(x2)| 
B|--------------------------------------------------------------------------| 
G|--------------------------------------------------------------------------| 
D|-8-8-8-8-8-8-8--8-8-8--8-8-8-8--8-8-8-8-8-8-5--5-5-5-5-5-5----------------| 
A|-8-8-8-8-8-8-8--8-8-8--8-8-8-8--8-8-8-8-8-8-5--5-5-5-5-5-5----------------| 
D|-8-8-8-8-8-8-8--8-8-8--8-8-8-8--8-8-8-8-8-8-5--5-5-5-5-5-5----------------| 

VeRSe 
e|----------------------------------------------------------------------(x2)| 
B|----------15-------------18-17--------------------------------------------| 
G|-------14----14-------14-------17-------12-14-15-14-12-------12-15-17-----| 
D|----12-------------12----------------12-------------------12--------------| 
A|-12-------------12----------------12-------------------12-----------------| 
D|--------------------------------------------------------------------------| 

e|-17------------------------------18--------20--------------------(TReMeLO)| 
B|-----------15--------17----18---------------------------------------------| 
G|--------------------------------------------------------------------------| 
D|--------------------------------------------------------------------------| 
A|--------------------------------------------------------------------------| 
D|--------------------------------------------------------------------------| 

CHORUS 

VeRSe 

CHORUS 

BReAKDOWN 
e|--------------------------------------------------------------------------| 
B|--------------------------------------------------------------------------| 
G|-7-7-7-7-7-7-7-7-9-9-9-9-101010107-7-7-7-7-7-7-7-9-9-9-910101010----------| 
D|-x-x-x-x-x-x-x-x-x-x-x-x-x-x-x-x-x-x-x-x-x-x-x-x-x-x-x-x-x-x-x-x----------| 
A|-5-5-5-5-5-5-5-5-7-7-7-7-8-8-8-8-5-5-5-5-5-5-5-5-7-7-7-7-8-8-8-8----------| 
D|--------------------------------------------------------------------------| 

e|----------------------------------------------------------------------(x2)| 
B|--------------------------------------------------------------------------| 
G|--------------------------------------------------7-7-7-7-7-7-7-----------| 
D|-0-0-0-0-0-0-0-0-7-0-0-0-0-0-0-0--0-0-0-0-0-0-0-0-7-7-7-7-7-7-7-----------| 
A|-0-0-0-0-0-0-0-0-5-0-0-0-0-0-0-0--0-0-0-0-0-0-0-0-5-5-5-5-5-5-5-----------| 
D|-0-0-0-0-0-0-0-0---0-0-0-0-0-0-0--0-0-0-0-0-0-0-0-------------------------| 

e|-3////17----------------15--------18--------13---------------12--(TReMeLO)| 
B|--------------------------------------------------------------------------| 
G|--------------------------------------------------------------------------| 
D|--------------------------------------------------------------------------| 
A|--------------------------------------------------------------------------| 
D|--------------------------------------------------------------------------| 

e|-13----12----10----------13----12----10----------(x2)|--------------------| 
B|-------------------10----------------------10--------|--------------------| 
G|-----------------------------------------------------|--------------------| 
D|-----------------------------------------------------|---3333333333333----| 
A|-----------------------------------------------------|---3333333333333----| 
D|-----------------------------------------------------|---3333333333333----| 
                                                           xxxxxxxxxxxxx 
e|----------------------------------------------------------------------(x4)| 
B|--------------------------------------------------------------------------| 
G|-7-7-7--7-7-7-7--7--7-7-7-7--7-7-7--7-7-7-7--7--7-7-7-7-------------------| 
D|-x-x-x--x-x-x-x--x--x-x-x-x--x-x-x--x-x-x-x--x--x-x-x-x-------------------| 
A|-5-5-5--5-5-5-5--5--5-5-5-5--5-5-5--5-5-5-5--5--5-5-5-5-------------------| 
D|--------------------------------------------------------------------------| 

SOLO 
e|--------------------------------------------------------------------------| 
B|--------------------------------------------------------------------------| 
G|------10----10-12-12b-12brb-10--------------------------------------------| 
D|10-12----12--------------------12--10-12-10h12p10-------------------------| 
A|--------------------------------------------------10-12-------------------| 
D|--------------------------------------------------------------------------| 
 |                                                                          | 
e|--------------------------------------------------------------------------| 
B|--------------------------------------------------------------------------| 
G|--------------------------------------------------------------------------| 
D|--------------------------------------------------------------------------| 
A|-12h13p12-10-12-12h13p12-10-12--------------------------------------------| 
D|--------------------------------------------------------------------------| 
 |                                                                          | 
e|--------------------------------------------------------------------------| 
B|--------------------13b-15-/18-20--20h22p20-------------------------------| 
G|-------10-----12-14-------------------------19-22-17-14-14h15p14-12-14----| 
D|-10-12----12--------------------------------------------------------------| 
A|--------------------------------------------------------------------------| 
D|--------------------------------------------------------------------------| 
 |                                                                          | 
e|--------------------------------------------------------------------------| 
B|--------------------------------------------------------------------------| 
G|-14h15p14-12-14-14-14h15p14-12-14-14-14h15p14-12-10-10-10-9-9-9h10p9------| 
D|---------------------------------------------------------------------10---| 
A|--------------------------------------------------------------------------| 
D|--------------------------------------------------------------------------| 
 |                                                                          | 
e|--------------------------------------------------------------------------| 
B|--------------------------------------------------------------------------| 
G|--------10----------------------------------------------------------------| 
D|--10-12----12-10-10-10-8-8-8-7-/8-/10-/12-/14-/15-/17-19-15---------------| 
A|--------------------------------------------------------------------------| 
D|--------------------------------------------------------------------------| 

OUTRO 
e|-17-----17-----17-----17-----17------15-----15-----15-----15-----15-------| 
B|---15-----15-----15-----15-----15--15--15-----15-----15-----15-----15--15-| 
G|-----14-----14-----14-----14-----14------14-----14-----14-----14-----14---| 
D|--------------------------------------------------------------------------| 
A|--------------------------------------------------------------------------| 
D|--------------------------------------------------------------------------| 
 |                                                                          | 
e|-13-----13-----13-----13-----13------12-----12-----12-----12-----12---(x6)| 
B|---15-----15-----15-----15-----15--15--15-----15-----15-----15-----15--15-| 
G|-----14-----14-----14-----14-----14------14-----14-----14-----14-----14---| 
D|--------------------------------------------------------------------------| 
A|--------------------------------------------------------------------------| 
D|--------------------------------------------------------------------------| 
 
		  

See also:

tabs All American Rejects - Gives You Hell tabs That 70's show - That 70's show theme song tabs A Day to Remember - All I Want tabs Panic! At The Disco - Build God Then We'll Talk tabs Johan Sebastian Bach - Toccata em Sol. tabs Danny Elfman - Simpsons
e-chords

Other versions:

tabs BlessTheFall - Meet Me At The Gates
auto scroll beats size up size down change color hide chords drawings
tab show chords e-chords YouTube Clip e-chords hide all tabs e-chords go to top tab

share with facebook