Bleeding Through

Anti-hero

Bleeding Through

tabs

by  PAULANTUNES

save to print version add songbook text version e-mail correct tuner
chordsukulelecavacokeyboardtabbassdrumsharmonicaflute Guitar Pro
close

there isn't a video lesson for this song

chords

Anti-hero

	  		------------------------------------------------------------------------------- 
                             Anti-Hero - Bleeding Through 
------------------------------------------------------------------------------- 
Tabbed by: Mike 
E-mail: [email protected] 

Tuning: Drop B 

verse 1 

C#|---------------------------------------------------------------------------| 
G#|---------------------------------------------------------------------------| 
E |---------------------------------------------------------------------------| 
b |---------------(2-2-2)----------------(2-2-2)---------(1-1-1)--------------| 
F#|---------------------------------------------------------------------------| 
B |(1-1-1)(1-1-1)---------(1-1-1)(1-1-1)---------(1-1-1)----------------------| 

C#|---------------------------------------------------------------------------| 
G#|---------------------------------------------------------------------------| 
E |---------------------------------------------------------------------------| 
b |---------------(2-2-2)-----------------------------------------------------| 
F#|---------------------------------------------------------------------------| 
B |(1-1-1)(1-1-1)---------(1-1-1)(2-2-2)-(6-6-6)-(5-5-5)-(2-2-2)--------------| 

x2 

C#|---------------------------------------------------------------------------| 
G#|---------------------------------------------------------------------------| 
E |---------------------------------------------------------------------------| 
b |---------------(6-6-6)----------------(6-6-6)---------(5-5-5)--------------| 
F#|---------------------------------------------------------------------------| 
B |(5-5-5)(5-5-5)---------(5-5-5)(5-5-5)---------(5-5-5)----------------------| 

C#|---------------------------------------------------------------------------| 
G#|---------------------------------------------------------------------------| 
E |---------------------------------------------------------------------------| 
b |---------------(6-6-6)-----------------------------------------------------| 
F#|---------------------------------------------------------------------------| 
B |(5-5-5)(5-5-5)---------(5-5-5)(6-6-6)-(10-10-10)-(9-9-9)-(6-6-6)-----------| 

C#|---------------------------------------------------------------------------| 
G#|---------------------------------------------------------------------------| 
E |---------------------------------------------------------------------------| 
b |---------------(2-2-2)----------------(2-2-2)---------(1-1-1)--------------| 
F#|---------------------------------------------------------------------------| 
B |(1-1-1)(1-1-1)---------(1-1-1)(1-1-1)---------(1-1-1)----------------------| 

C#|---------------------------------------------------------------------------| 
G#|---------------------------------------------------------------------------| 
E |---------------------------------------------------------------------------| 
b |---------------(2-2-2)-----------------------------------------------------| 
F#|-------------------------------------------------------------------0~~~~---| 
B |(1-1-1)(1-1-1)---------(1-1-1)(2-2-2)-(6-6-6)-(5-5-5)-(2-2-2)------0~~~~---| 

interlude 1 

C#|---------------------------------------------------------------------------| 
G#|---------------------------------------------------------------------------| 
E |---------------------------------------------------------------------------| 
b |---------------------------------------------------------------------------| 
F#|----------1----------------------------------------------------------------| 
B |0-(0-0-0)-1-0-(0-0-0)-0-(0-0-0)-0-(0-0-0)-(0-0-0)--------------------------| 

C#|---------------------------------------------------------------------------| 
G#|---------------------------------------------------------------------------| 
E |---------------------------------------------------------------------------| 
b |----------------------------6----------------------------------------------| 
F#|----------1-------------7-8------------------------------------------------| 
B |0-(0-0-0)-1-0-(0-0-0)-0----------------------------------------------------| 

C#|---------------------------------------------------------------------------| 
G#|---------------------------------------------------------------------------| 
E |---------------------------------------------------------------------------| 
b |---------------------------------------------------------------------------| 
F#|----------1----------------------------------------------------------------| 
B |0-(0-0-0)-1-0-(0-0-0)-0-(0-0-0)-0-(0-0-0)-(0-0-0)--------------------------| 

C#|---------------------------------------------------------------------------| 
G#|---------------------------------------------------------------------------| 
E |---------------------------------------------------------------------------| 
b |---------------------------------------------------------------------------| 
F#|----------1-----------------------(pick slide///)--------------------------| 
B |0-(0-0-0)-1-0-(0-0-0)-0-(0-0-0)-0-(0-0-0)-(0-0-0)--------------------------| 

verse 2 

C#|---------------------------------------------------------------------------| 
G#|---------------------------------------------------------------------------| 
E |---------------------------------------------------------------------------| 
b |---------------------------------------------------------------------------| 
F#|----------1----------------------------------------------------------------| 
B |0-(0-0-0)-1-0-(0-0-0)-(0-0-0)-(0-0-0)-(0-0-0)-(0-0-0)----------------------| 

C#|---------------------------------------------------------------------------| 
G#|---------------------------------------------------------------------------| 
E |---------------------------------------------------------------------------| 
b |----------------------------7-6--------------------------------------------| 
F#|----------1-------------7-8-----8-7-8--------------------------------------| 
B |0-(0-0-0)-1-0-(0-0-0)-0----------------------------------------------------| 

C#|---------------------------------------------------------------------------| 
G#|---------------------------------------------------------------------------| 
E |---------------------------------------------------------------------------| 
b |---------------------------------------------------------------------------| 
F#|----------1----------------------------------------------------------------| 
B |0-(0-0-0)-1-0-(0-0-0)-(0-0-0)-(0-0-0)-(0-0-0)-(0-0-0)----------------------| 

C#|-------------------------------------------------|-------------------------| 
G#|-------------------------------------------------|-------------------------| 
E |-------------------------------------------------|-------------------------| 
b |-------------------------------------------------|---(2nd ending)----------| 
F#|----------1-------------------1------------------|-1-----------------------| 
B |0-(0-0-0)-1-0-(0-0-0)-(0-0-0)-1-(0-0-0)-x(pinch)-|-1-----------------------| 

x2 

Chorus 1 

C#|---------------------------------------------------------------------------| 
G#|---------------------------------------------------------------------------| 
E |---------------------------------------------------------------------------| 
b |0~~~~~~~~~~~~~~------------------------------------------------------------| 
F#|0~~~~~~~~~~~~~~------------------------------------------------------------| 
B |0~~~~~~~~~~~~~~------------------------------------------------------------| 

C#|---------------------------------------------------------------------------| 
G#|---------------------------------------------------------------------------| 
E |---------------------------------------------------------------------------| 
b |--------------------------------------------------12\\\\\\\\\\\\-----------| 
F#|----5-----8-----7-----5---/12-11~~~~~~~~~---------12\\\\\\\\\\\\-----------| 
B |0-0---0-0---0-0---0-0---0-------------------------12\\\\\\\\\\\\-----------| 

C#|---------------------------------------------------------------------------| 
G#|---------------------------------------------------------------------------| 
E |---------------------------------------------------------------------------| 
b |0~~~~~~~~~~~~~~------------------------------------------------------------| 
F#|0~~~~~~~~~~~~~~------------------------------------------------------------| 
B |0~~~~~~~~~~~~~~------------------------------------------------------------| 

C#|---------------------------------------------------------------------------| 
G#|---------------------------------------------------------------------------| 
E |---------------------------------------------------------------------------| 
b |-----------------------------------------------------2---------------------| 
F#|----5-----8-----7-----5---/12-11~~~~~~~~~------------2---------------------| 
B |0-0---0-0---0-0---0-0---0--------------------------0-2---------------------| 

verse 1 

C#|---------------------------------------------------------------------------| 
G#|---------------------------------------------------------------------------| 
E |---------------------------------------------------------------------------| 
b |---------------(2-2-2)----------------(2-2-2)---------(1-1-1)--------------| 
F#|---------------------------------------------------------------------------| 
B |(1-1-1)(1-1-1)---------(1-1-1)(1-1-1)---------(1-1-1)----------------------| 

C#|---------------------------------------------------------------------------| 
G#|---------------------------------------------------------------------------| 
E |---------------------------------------------------------------------------| 
b |---------------(2-2-2)-----------------------------------------------------| 
F#|---------------------------------------------------------------------------| 
B |(1-1-1)(1-1-1)---------(1-1-1)(2-2-2)-(6-6-6)-(5-5-5)-(2-2-2)--------------| 

x2 

C#|---------------------------------------------------------------------------| 
G#|---------------------------------------------------------------------------| 
E |---------------------------------------------------------------------------| 
b |---------------(6-6-6)----------------(6-6-6)---------(5-5-5)--------------| 
F#|---------------------------------------------------------------------------| 
B |(5-5-5)(5-5-5)---------(5-5-5)(5-5-5)---------(5-5-5)----------------------| 

C#|---------------------------------------------------------------------------| 
G#|---------------------------------------------------------------------------| 
E |---------------------------------------------------------------------------| 
b |---------------(6-6-6)-----------------------------------------------------| 
F#|---------------------------------------------------------------------------| 
B |(5-5-5)(5-5-5)---------(5-5-5)(6-6-6)-(10-10-10)-(9-9-9)-(6-6-6)-----------| 

C#|---------------------------------------------------------------------------| 
G#|---------------------------------------------------------------------------| 
E |---------------------------------------------------------------------------| 
b |---------------(2-2-2)----------------(2-2-2)---------(1-1-1)--------------| 
F#|---------------------------------------------------------------------------| 
B |(1-1-1)(1-1-1)---------(1-1-1)(1-1-1)---------(1-1-1)----------------------| 

C#|---------------------------------------------------------------------------| 
G#|---------------------------------------------------------------------------| 
E |---------------------------------------------------------------------------| 
b |---------------(2-2-2)-----------------------------------------------------| 
F#|--------------------------------------6-5-2--------------------------------| 
B |(1-1-1)(1-1-1)---------(1-1-1)(2-2-2)-6-5-2--------------------------------| 

interlude 2 

C#|---------------------------------------------------------------------------| 
G#|---------------------------------------------------------------------------| 
E |---------------------------------------------------------------------------| 
b |---------------------------------------------------------------------------| 
F#|0-0-0-0-0-9-9-9-9-9-9-9-9-0-0-0-0-0-9-9-9-9--------------------------------| 
B |1-1-1-1-1-----------------1-1-1-1-1----------------------------------------| 

C#|---------------------------------------------------------------------------| 
G#|---------------------------------------------------------------------------| 
E |---------------------------------------------------------------------------| 
b |---------------------------------------------------------------------------| 
F#|0-0-0-0-0-9-9-9-9-9-9-9-9-0-0-0-0-0----------------------------------------| 
B |1-1-1-1-1-----------------1-1-1-1-1-4-1-0-x(pinch)-------------------------| 

Chorus 2 

C#|---------------------------------------------------------------------------| 
G#|---------------------------------------------------------------------------| 
E |---------------------------------------------------------------------------| 
b |---------------------------------------------------------------------------| 
F#|0-0-0-0-0-0---------------0-0-0-0-0-0-(0-0-0-0-0)--------------------------| 
B |1-1-1-1-1-1---------------1-1-1-1-1-1-(1-1-1-1-1)--------------------------| 

C#|---------------------------------------------------------------------------| 
G#|---------------------------------------------------------------------------| 
E |---------------------------------------------------------------------------| 
b |---------------------------------------------------------------------------| 
F#|0-0-0-0-0-0---------------0-0-0-0-0----------------------------------------| 
B |1-1-1-1-1-1---------------1-1-1-1-1-4-1-0-x(pinch)-------------------------| 

x2 

verse 2 

C#|---------------------------------------------------------------------------| 
G#|---------------------------------------------------------------------------| 
E |---------------------------------------------------------------------------| 
b |---------------------------------------------------------------------------| 
F#|----------1----------------------------------------------------------------| 
B |0-(0-0-0)-1-0-(0-0-0)-(0-0-0)-(0-0-0)-(0-0-0)-(0-0-0)----------------------| 

C#|---------------------------------------------------------------------------| 
G#|---------------------------------------------------------------------------| 
E |---------------------------------------------------------------------------| 
b |----------------------------7-6--------------------------------------------| 
F#|----------1-------------7-8-----8-7-8--------------------------------------| 
B |0-(0-0-0)-1-0-(0-0-0)-0----------------------------------------------------| 

C#|---------------------------------------------------------------------------| 
G#|---------------------------------------------------------------------------| 
E |---------------------------------------------------------------------------| 
b |---------------------------------------------------------------------------| 
F#|----------1----------------------------------------------------------------| 
B |0-(0-0-0)-1-0-(0-0-0)-(0-0-0)-(0-0-0)-(0-0-0)-(0-0-0)----------------------| 

C#|-------------------------------------------------|-------------------------| 
G#|-------------------------------------------------|-------------------------| 
E |-------------------------------------------------|-------------------------| 
b |-------------------------------------------------|---(2nd ending)----------| 
F#|----------1-------------------1------------------|-1-----------------------| 
B |0-(0-0-0)-1-0-(0-0-0)-(0-0-0)-1-(0-0-0)-x(pinch)-|-1-----------------------| 

x2 

Chorus 1 

C#|---------------------------------------------------------------------------| 
G#|---------------------------------------------------------------------------| 
E |---------------------------------------------------------------------------| 
b |0~~~~~~~~~~~~~~------------------------------------------------------------| 
F#|0~~~~~~~~~~~~~~------------------------------------------------------------| 
B |0~~~~~~~~~~~~~~------------------------------------------------------------| 

C#|---------------------------------------------------------------------------| 
G#|---------------------------------------------------------------------------| 
E |---------------------------------------------------------------------------| 
b |--------------------------------------------------12\\\\\\\\\\\\-----------| 
F#|----5-----8-----7-----5---/12-11~~~~~~~~~---------12\\\\\\\\\\\\-----------| 
B |0-0---0-0---0-0---0-0---0-------------------------12\\\\\\\\\\\\-----------| 

C#|---------------------------------------------------------------------------| 
G#|---------------------------------------------------------------------------| 
E |---------------------------------------------------------------------------| 
b |0~~~~~~~~~~~~~~------------------------------------------------------------| 
F#|0~~~~~~~~~~~~~~------------------------------------------------------------| 
B |0~~~~~~~~~~~~~~------------------------------------------------------------| 

C#|---------------------------------------------------------------------------| 
G#|---------------------------------------------------------------------------| 
E |---------------------------------------------------------------------------| 
b |-----------------------------------------------------2~~~~-----------------| 
F#|----5-----8-----7-----5---/12-11~~~~~~~~~------------2~~~~-----------------| 
B |0-0---0-0---0-0---0-0---0--------------------------0-2~~~~-----------------| 

solo section/ verse 1 

C#|---------------------------------------------------------------------------| 
G#|---------------------------------------------------------------------------| 
E |---------------------------------------------------------------------------| 
b |---------------(2-2-2)----------------(2-2-2)---------(1-1-1)--------------| 
F#|---------------------------------------------------------------------------| 
B |(1-1-1)(1-1-1)---------(1-1-1)(1-1-1)---------(1-1-1)----------------------| 

C#|---------------------------------------------------------------------------| 
G#|---------------------------------------------------------------------------| 
E |---------------------------------------------------------------------------| 
b |---------------(2-2-2)-----------------------------------------------------| 
F#|---------------------------------------------------------------------------| 
B |(1-1-1)(1-1-1)---------(1-1-1)(2-2-2)-(6-6-6)-(5-5-5)-(2-2-2)--------------| 

x2 

C#|---------------------------------------------------------------------------| 
G#|---------------------------------------------------------------------------| 
E |---------------------------------------------------------------------------| 
B |---------------(6-6-6)----------------(6-6-6)---------(5-5-5)--------------| 
F#|---------------------------------------------------------------------------| 
B |(5-5-5)(5-5-5)---------(5-5-5)(5-5-5)---------(5-5-5)----------------------| 

C#|---------------------------------------------------------------------------| 
G#|---------------------------------------------------------------------------| 
E |---------------------------------------------------------------------------| 
b |---------------(6-6-6)-----------------------------------------------------| 
F#|---------------------------------------------------------------------------| 
B |(5-5-5)(5-5-5)---------(5-5-5)(6-6-6)-(10-10-10)-(9-9-9)-(6-6-6)-----------| 

C#|---------------------------------------------------------------------------| 
G#|---------------------------------------------------------------------------| 
E |---------------------------------------------------------------------------| 
b |---------------(2-2-2)----------------(2-2-2)---------(1-1-1)--------------| 
F#|---------------------------------------------------------------------------| 
B |(1-1-1)(1-1-1)---------(1-1-1)(1-1-1)---------(1-1-1)----------------------| 

C#|---------------------------------------------------------------------------| 
G#|---------------------------------------------------------------------------| 
E |---------------------------------------------------------------------------| 
b |---------------(2-2-2)-----------------------------------------------------| 
F#|--------------------------------------6-5-2~~~-----------------------------| 
B |(1-1-1)(1-1-1)---------(1-1-1)(2-2-2)-6-5-2~~~-----------------------------| 

interlude 2 

C#|---------------------------------------------------------------------------| 
G#|---------------------------------------------------------------------------| 
E |---------------------------------------------------------------------------| 
b |---------------------------------------------------------------------------| 
F#|0-0-0-0-0-9-9-9-9-9-9-9-9-0-0-0-0-0-9-9-9-9--------------------------------| 
B |1-1-1-1-1-----------------1-1-1-1-1----------------------------------------| 

C#|---------------------------------------------------------------------------| 
G#|---------------------------------------------------------------------------| 
E |---------------------------------------------------------------------------| 
b |---------------------------------------------------------------------------| 
F#|0-0-0-0-0-9-9-9-9-9-9-9-9-0-0-0-0-0----------------------------------------| 
B |1-1-1-1-1-----------------1-1-1-1-1-4-1-0-x(pinch)-------------------------| 

Chorus 2  

C#|---------------------------------------------------------------------------| 
G#|---------------------------------------------------------------------------| 
E |---------------------------------------------------------------------------| 
b |---------------------------------------------------------------------------| 
F#|0-0-0-0-0-0---------------0-0-0-0-0-0-(0-0-0-0-0)--------------------------| 
B |1-1-1-1-1-1---------------1-1-1-1-1-1-(1-1-1-1-1)--------------------------| 

C#|---------------------------------------------------------------------------| 
G#|---------------------------------------------------------------------------| 
E |---------------------------------------------------------------------------| 
b |---------------------------------------------------------------------------| 
F#|0-0-0-0-0-0---------------0-0-0-0-0----------------------------------------| 
B |1-1-1-1-1-1---------------1-1-1-1-1-4-1-0-x(pinch)-------------------------| 

x2 



************************************ 

| /   slide up 
| \   slide down 
| h   hammer-on 
| p   pull-off 
| ~   vibrato 
| +   harmonic 
| x   Mute note 
| b   bend 

************************************ 
		  

auto scroll beats size up size down change color hide chords drawings
tab show chords e-chords YouTube Clip e-chords hide all tabs e-chords go to top tab

share