Bleach

Perfect Family

Bleach

tabs

save to print version add songbook text version e-mail correct tuner
chordsukulelecavacokeyboardtabbassdrumsharmonicaflute Guitar Pro
close

there isn't a video lesson for this song

chords

Perfect Family

Written by Sam Barnhart/Dave Baysinger/Brad Ford/Matt Gingerich/Todd Kirby

	  		NOTES:  i watched sam playing this live.  this is what he played.  i don't 
        know about the ending. 
 
 
Notation Used: 
        X    =  rake string with pick, using fret hand to mute 
                (creates a percussive sound) 
        / or \  =  slide up or down into note 
        (11)   =  ghost note; not struck but is sounded 
                i.e.  /(13)  pick then slide into 13 
                but don't pick again after sliding into 
                the note 
        NOTE:   /13 means to pick, slide, then 
                pick the note again after sliding 
                into it 
 
Intro (guitar 1) 
E--------------- 
B--------------- 
G--------------- 
D--------------- (played 4 times before guitar 2 enters; 
A--11-11-13-11--  then played 8 more times) 
E--------------- 
 
(guitar 2) 
E------------------------------------------------------------- 
B------------------------------------------------------------- 
G--9--9--x-x--9--9--------------------------------------------D--9--9--x-x--9--9--6--6--7--7--x-x--7--7--9--9--11--11--x-x-- 
A--7--7--x-x--7--7--6--6--7--7--x-x--7--7--9--9--11--11--x-x-- 
E--7--7-------7--7--4--4--5--5--x-x--5--5--7--7---9---9--x-x-- 
 
E--------------------------------------- 
B--------------------------------------- 
G--------------------------------------- 
D--11--11--9--9--7--7--x-x--7--7--9--9-- 
A--11--11--9--9--7--7--x-x--7--7--9--9-- 
E---9---9--7--7--5--5--x-x--5--5--7--7-- 
 
Verse 1 (guitar 2) 
E------------------------------------------------------------- 
B------------------------------------------------------------- 
G--9--9-------9--9-------------------------------------------- 
D--9--9-------9--9--6--6--7--7-------7--7--9--9--11--11------- 
A--7--7-------7--7--6--6--7--7-------7--7--9--9--11--11------- 
E--7--7-------7--7--4--4--5--5-------5--5--7--7---9---9------- 
 
E--------------------------------------- 
B--------------------------------------- 
G--------------------------------------- 
D--11--11--9--9--7--7-------7--7--9--9-- (played 2 times)A--11--11--9--9--7--7-------7--7--9--9-- 
E---9---9--7--7--5--5-------5--5--7--7-- 
 
Interlude (guitar 1) 
E--------------- 
B--------------- 
G--------------- 
D--------------- (played 4 times before Verse 2) 
A--11-11-13-11-- 
E--------------- 
 
Verse 2 (guitars 1 and 2) 
E------------------------------------------------------------- 
B------------------------------------------------------------- 
G--9--9-------9--9-------------------------------------------- 
D--9--9-------9--9--6--6--7--7-------7--7--9--9--11--11------- 
A--7--7-------7--7--6--6--7--7-------7--7--9--9--11--11------- 
E--7--7-------7--7--4--4--5--5-------5--5--7--7---9---9------- 
 
E--------------------------------------- 
B--------------------------------------- 
G--------------------------------------- 
D--11--11--9--9--7--7-------7--7--9--9-- (played 2 times) 
A--11--11--9--9--7--7-------7--7--9--9-- 
E---9---9--7--7--5--5-------5--5--7--7-- 
 
Chorus (guitar 1 or 2 or both--played 4 times) 
E------------------------------------------------------- 
B-------------------------------------------------------G--9--9--x---------------------------------------------- 
D--9--9--x--6/(7)--7--7--7/(11)\9--9--9--9--7--7--9--9-- 
A--7--7--x--6/(7)--7--7--7/(11)\9--9--9--9--7--7--9--9-- 
E--7--7-----4/(5)--5--5--5/( 9)\7--7--7--7--5--5--7--7-- 
 
Solo (Lead - guitar 1) 
E--------------------------------------------------------- 
B--------------------------------------------------------- 
G--(played 8 times)--------------------------------------- 
D--------------------------------------------------------- 
A-----11-11-13-11--------/(18)--19--19--18-19--19-18--19-- 
E--------------------------------------------------------- 
 
E--------------------------------------------------------------- 
B--------------------------------------------------------------- 
G--------------------------------------------------------------- 
D--------------------------------------------------------------- 
A--19-16--19--16--16/(18)--19--19-18--19--19-18--19--18-16--14-- 
E--------------------------------------------------------------- 
 
E---------------------------------------------------------------B--------------------------------------------------------------- 
G--------------------------------------------------------------- 
D--------------------------------------------------------------- 
A--16-16/(18)-18-19-18-16--14--16/(18)-19-19-18-16--14--16/(18)- 
E--------------------------------------------------------------- 
 
E-------------------------------------------- 
B-------------------------------------------- 
G-------------------------------------------- 
D-------------------------------------------- 
A--18-19-18-16--14--12-12-12-12-12-12-12-12-- 
E-------------------------------------------- 
 
(Rhythm - guitar 2) 
E-------------------------------------------------------------- 
B-------------------------------------------------------------- 
G--9--9--9--9--9--9-------------------------------------------- 
D--9--9--9--9--9--9--6--6--7--7--7--7--7--7--9--9--11--11--11-- 
A--7--7--7--7--7--7--6--6--7--7--7--7--7--7--9--9--11--11--11-- 
E--7--7--7--7--7--7--4--4--5--5--5--5--5--5--7--7---9---9---9-- 
E-------------------------------------------- 
B-------------------------------------------- 
G-------------------------------------------- 
D--11--11--11--9--9--7--7--7--7--7--7--9--9-- (played 3 times) 
A--11--11--11--9--9--7--7--7--7--7--7--9--9-- 
E---9---9---9--7--7--5--5--5--5--5--5--7--7-- 
 
E-------------------------------------------------------------- 
B-------------------------------------------------------------- 
G--9--9--9--9--9--9-------------------------------------------- 
D--9--9--9--9--9--9--6--6--7--7--7--7--7--7--9--9--11--11--11-- 
A--7--7--7--7--7--7--6--6--7--7--7--7--7--7--9--9--11--11--11-- 
E--7--7--7--7--7--7--4--4--5--5--5--5--5--5--7--7---9---9---9-- 
 
E-------------------------------------------- 
B-------------------------------------------- 
G-------------------------------------------- 
D--11--11--11--9--9--7--7--7--7--7--7--7--7-- 
A--11--11--11--9--9--7--7--7--7--7--7--7--7-- 
E---9---9---9--7--7--5--5--5--5--5--5--5--5-- 
 
Chorus 
 
Verse 3 (Outro) 
(Riff 1 - guitar 2) 
E-------------------------------------------------------------B------------------------------------------------------------- 
G--9--9-------9--9-------------------------------------------- 
D--9--9-------9--9--6--6--7--7-------7--7--9--9--11--11------- 
A--7--7-------7--7--6--6--7--7-------7--7--9--9--11--11------- 
E--7--7-------7--7--4--4--5--5-------5--5--7--7---9---9------- 
 
E--------------------------------------- 
B--------------------------------------- 
G--------------------------------------- 
D--11--11--9--9--7--7-------7--7--9--9-- 
A--11--11--9--9--7--7-------7--7--9--9-- 
E---9---9--7--7--5--5-------5--5--7--7-- 
 
(Riff 2 - guitar 2) 
E------------------------------------------------------------- 
B------------------------------------------------------------- 
G------------------------------------------------------------- 
D------------------------------------------------------------- 
A--2--2--x-x--2--2--6--6--7--7--x-x--7--7--9--9--11--11--x-x-- 
E--0--0--x-x--0--0--4--4--5--5--x-x--5--5--7--7---9---9--x-x-- 
 
E--------------------------------------- 
B---------------------------------------G--------------------------------------- 
D--------------------------------------- 
A--11--11--9--9--7--7--x-x--7--7--9--9-- 
E---9---9--7--7--5--5--x-x--5--5--7--7-- 
 
E------------------------------------------------------------- 
B------------------------------------------------------------- 
G------------------------------------------------------------- 
D------------------------------------------------------------- 
A--2--2--x-x--2--2--6--6--7--7--x-x--7--7--9--9--11--11--x-x-- 
E--0--0--x-x--0--0--4--4--5--5--x-x--5--5--7--7---9---9--x-x-- 
 
E------------------------------------------ 
B------------------------------------------ 
G------------------------------------------ 
D---------------------------------------2-- 
A--11--11--9--9--7--7--x-x--7--7--9--9----- 
E---9---9--7--7--5--5--x-x--5--5--7--7----- 
 
 

		  

auto scroll beats size up size down change color hide chords drawings
tab show chords e-chords YouTube Clip e-chords hide all tabs e-chords go to top tab

share