Bleach

Chu-bura

Bleach

tabs Beginner beginner

by  J1R41Y4

save to print version add songbook text version e-mail correct tuner
chordsukulelecavacokeyboardtabbassdrumsharmonicaflute Guitar Pro
close

there isn't a video lesson for this song

chords

Chu-bura

	  		Intro (2x): 

E|-------------------------- 
B|-------------------------- 
G|--7--8--10--7--8--12--10-- 
D|--x--x--x---x--x--x---x--- 
A|--5--6--8---5--6--10--8--- 
E|-------------------------- 

Verse: 

E|----- 
B|----- 
G|--7-- 
D|--8-- 
A|--6-- 
E|----- 
Onaji dorama wo nandomo miteru 


E|----- 
B|----- 
G|--7-- 
D|--8-- 
A|--x-- 
E|--8-- 
Kyou mo naa, sonna ki ga shiteta zutto 


E|-------------------------------------------- 
B|-------------------------------------------- 
G|--------7--8--7--------8--------7--8--7----- 
D|-----8-----------8--------8--------------8-- 
A|--6-----------------6--------6-------------- 
E|-------------------------------------------- (2x) 
Kimi ga waratte kureta shunkan ni 


E|-------------------------------------------- 
B|-------------------------------------------- 
G|--------7--8--7--------8--------7--8--7----- 
D|-----8-----------8--------8--------------8-- 
A|-------------------------------------------- 
E|--8-----------------8--------8-------------- (2x) 
atarashii SUTORI ga hajimatta 


E|--------------------- 
B|--------------------- 
G|--------------------- 
D|---6---8---10---12--- 
A|---x---x---x----x---- 
E|---4---6---8----10--- 
Chuuburarin na aseta hibi ga 


E|----------------------- 
B|----------------------- 
G|----------------------- 
D|---13---15---17---18--- 
A|---x----x----x----x---- 
E|---11---13---15---16--- 
iruzuiteiku no ga wakattan da 


Chorus: 

E|-----6-----6-----x-----x---- 
B|-----6-----6-----x-----x---- 
G|-----7-----7-----8-----x---- 
D|-----8-----8-----6-----8---- 
A|-----6-----6-----6-----8---- 
E|-----x-----8-----4-----6---- 
Saa, mabuta o akete.. kodoku ni surigaeteta 


E|-----6-----6-----x-----x---- 
B|-----6-----6-----x-----x---- 
G|-----7-----7-----8-----x---- 
D|-----8-----8-----6-----8---- 
A|-----6-----6-----6-----8---- 
E|-----x-----8-----4-----6---- 
Nakushiteta yuuki wo kono te ni kakageyo 

E|-----6-----6-----x-----x---- 
B|-----6-----6-----x-----x---- 
G|-----7-----7-----8-----4---- 
D|-----8-----8-----6-----5---- 
A|-----6-----6-----6-----5---- 
E|-----x-----8-----4-----3---- 
Koraeteta namida ima omoidashita kara 


E|-----3-----x-----x-----x----- 
B|-----4-----x-----x-----x----- 
G|-----3-----3-----8-----x----- 
D|-----5-----5-----6-----8----- 
A|-----3-----5-----6-----8----- 
E|-----x-----3-----4-----6----- 
Kimi no te wo nigitte monogatari wa hajimaru 


Outro: 

E|------------------- 
B|------------------- 
G|--7--8--12--10--8-- 
D|--x--x--x---x---x-- 
A|--5--6--10--8---6-- 
E|------------------- 


---Créditos ao jptabs =) 
		  

See also:

tabs 12-Stones - My life tabs 12-Stones - Crash tabs Jars of Clay - Overjoyed tabs Jeremy Camp - I Still Believe tabs Kutless - one touch tabs White Cross - Behold
e-chords

Other versions:

tabs Bleach - Chu-bura
auto scroll beats size up size down change color hide chords drawings
tab show chords e-chords YouTube Clip e-chords hide all tabs e-chords go to top tab

share