Blackfoot

Take A Train

Blackfoot

tabs nolevel nolevel

by  MARCNAGEL

save to print version add songbook text version e-mail correct tuner
chordsukulelecavacokeyboardtabbassdrumsharmonicaflute Guitar Pro
close

there isn't a video lesson for this song

chords

Take A Train

	  		

Guitar I (Overdriven) 

e|--------------|---------------------|--------------|--------------------| 
B|--------------|---------------------|--------------|--------------------| 
G|--------5/7---|--8/10\9/10\9/10\9---|--------5/7---|----10\9---7----5---| 
D|--5/7---5/7---|--8/10\9/10\9/10\9---|--5/7---5/7---|--8/10\9---7----5---| 
A|--5/7---3/5---|--6/8-\7/8-\7/8-\7---|--5/7---3/5---|--6/9-\7---5----3---| 
E|--3/5---------|---------------------|--3/5---------|--------------------| 

e|--------------|---------------------|--------------|--------------------| 
B|--------------|---------------------|--------------|--------------------| 
G|--------5/7---|--8/10\9/10\9/10\9---|--------5/7---|----10\9---7----5---| 
D|--5/7---5/7---|--8/10\9/10\9/10\9---|--5/7---5/7---|--8/10\9---7----5---| 
A|--5/7---3/5---|--6/8-\7/8-\7/8-\7---|--5/7---3/5---|--6/9-\7---5----3---| 
E|--3/5---------|---------------------|--3/5---------|--------------------| 

e|--------------|---------------------|--------------|--------------------| 
B|--------------|---------------------|--------------|--------------------| 
G|--------5/7---|--8/10\9/10\9/10\9---|--------5/7---|----10\9---7----5---| 
D|--5/7---5/7---|--8/10\9/10\9/10\9---|--5/7---5/7---|--8/10\9---7----5---| 
A|--5/7---3/5---|--6/8-\7/8-\7/8-\7---|--5/7---3/5---|--6/9-\7---5----3---| 
E|--3/5---------|---------------------|--3/5---------|--------------------| 

e|--------------|---------------------|--------------|--------------------| 
B|--------------|---------------------|--------------|--------------------| 
G|--------5/7---|--8/10\9/10\9/10\9---|--------5/7---|----10\9---7----5---| 
D|--5/7---5/7---|--8/10\9/10\9/10\9---|--5/7---5/7---|--8/10\9---7----5---| 
A|--5/7---3/5---|--6/8-\7/8-\7/8-\7---|--5/7---3/5---|--6/9-\7---5----3---| 
E|--3/5---------|---------------------|--3/5---------|--------------------| 

                      (Bass and Drums) 
e|---------|---------|-------------|-------------|-------------|-------------| 
B|---------|---------|-------------|-------------|-------------|-------------| 
G|---------|---------|-------------|-------------|-------------|-------------| 
D|---------|---------|-------------|-------------|-------------|-------------| 
A|---------|---------|-------------|-------------|-------------|-------------| 
E|---------|---------|-------------|-------------|-------------|-------------| 

1st Verse (Clean tone)Let notes ring where possible 

e|----------------------|-----------------------------|----------------------| 
B|-----3----------3-----|--------3--------3-----------|-----3----------3-----| 
G|--------2--0h2-----2--|-----0--------0--------------|--------2--0h2-----2--| 
D|--0-------------------|--------------------0--2h3p2p|--0-------------------| 
A|----------------------|--1--------3-----------------|----------------------| 
E|----------------------|-----------------------------|----------------------| 

e|-----------------------------|----------------------| 
B|--------3--------3-----------|-----3----------3-----| 
G|-----0--------0--------------|--------2--0h2-----2--| 
D|--------------------0--2h3p2p|--0-------------------| 
A|--1--------3-----------------|----------------------| 
E|-----------------------------|----------------------| 

e|-----------------------------|----------------------| 
B|--------3--------3-----------|-----3----------3-----| 
G|-----0--------0--------------|--------2--0h2-----2--| 
D|--------------------0--2h3p2p|--0-------------------| 
A|--1--------3-----------------|----------------------| 
E|-----------------------------|----------------------| 

e|------------------------------| 
B|--------3--------3------------| 
G|-----0--------0---------------| 
D|--------------------0--2h3p2--| 
A|--1--------3------------------| 
E|------------------------------| 

Intro reprise (Overdriven Tone) 

e|--------------|---------------------|--------------|--------------------| 
B|--------------|---------------------|--------------|--------------------| 
G|--------5/7---|--8/10\9/10\9/10\9---|--------5/7---|----10\9---7----5---| 
D|--5/7---5/7---|--8/10\9/10\9/10\9---|--5/7---5/7---|--8/10\9---7----5---| 
A|--5/7---3/5---|--6/8-\7/8-\7/8-\7---|--5/7---3/5---|--6/9-\7---5----3---| 
E|--3/5---------|---------------------|--3/5---------|--------------------| 

e|--------------|---------------------|--------------|--------------------| 
B|--------------|---------------------|--------------|--------------------| 
G|--------5/7---|--8/10\9/10\9/10\9---|--------5/7---|----10\9---7----5---| 
D|--5/7---5/7---|--8/10\9/10\9/10\9---|--5/7---5/7---|--8/10\9---7----5---| 
A|--5/7---3/5---|--6/8-\7/8-\7/8-\7---|--5/7---3/5---|--6/9-\7---5----3---| 
E|--3/5---------|---------------------|--3/5---------|--------------------| 

2nd Verse (clean Tone) Let notes ring where possible 

e|--------------------|--------------------|----------------------| 
B|----------3---------|--------------------|----------3-----------| 
G|-----0h2-----2------|--------------------|-----0h2-----2--------| 
D|--0-------------0h--|--3--2--0--2--3p2p--|--0-------------0-----| 
A|--------------------|--------------------|-------------------0h-| 
E|--------------------|--------------------|----------------------| 

e|----------------------|-------------------|--------------------| 
B|--------3-------------|----------3--------|--------------------| 
G|-----0--------0-------|-----0h2-----2-----|--------------------| 
D|-----------------2qb--|--0-------------0--|--3--2--0--2--3p2p--| 
A|--1--------3----------|-------------------|--------------------| 
E|----------------------|-------------------|--------------------| 

e|----------------------|---------------------------|-------------------| 
B|----------3-----------|--------3------------------|----------3--------| 
G|-----0h2-----2--------|-----0--------0------------|-----0h2-----2-----| 
D|--0-------------0-----|-----------------0--2--3p2p|--0-------------0--| 
A|-------------------0h-|--1--------3---------------|-------------------| 
E|----------------------|---------------------------|-------------------| 

e|--------------------|----------------------|---------------------------| 
B|--------------------|----------3-----------|--------3------------------| 
G|--------------------|-----0h2-----2--------|-----0--------0------------| 
D|--3--2--0--2--3p2p--|--0-------------0-----|-----------------0--2--3p2p| 
A|--------------------|-------------------0h-|--1--------3---------------| 
E|--------------------|----------------------|---------------------------| 

e|-------------------|--------------------|----------------------| 
B|----------3--------|--------------------|----------3-----------| 
G|-----0h2-----2-----|--------------------|-----0h2-----2--------| 
D|--0-------------0--|--3--2--0--2--3p2p--|--0-------------0-----| 
A|-------------------|--------------------|-------------------0h-| 
E|-------------------|--------------------|----------------------| 

e|---------------------------|-----2-----2--3-----------| 
B|--------3------------------|--------3--3--2-----------| 
G|-----0--------0------------|--------------------------| 
D|-----------------0--2--3p2p|-0------------------------| 
A|--1--------3---------------|--------------------------| 
E|---------------------------|--------------------------| 

1st Chorus (Overdriven tone) 

e|-----3----------------|---1---|------------------|--2---------2---| 
B|-----3----------------|---1---|------------------|--3---------3---| 
G|--0--0----------------|---2---|------1---2---2---|--2---0h2---2---| 
D|--0--0---------5--3---|---3---|--2---2---2---2---|--0---------0---| 
A|--2---------5-----3---|-------|--2---2---0---0---|----------------| 
E|--3-----/7--------1---|-------|--0---------------|----------------| 

e|-------1-----|-------3-------------------|-------0-----| 
B|-------1-----|-------3-------------------|-------0-----| 
G|--2----2-----|--0----0-------------------|-------1-----| 
D|--3----3-----|--0----0--------0--2p0-----|--2----2-----| 
A|--3----------|--2--------0h2----------2--|--2----------| 
E|--1----------|--3------------------------|--0----------| 

e|-----------------------------|-------------------| 
B|-----------------------------|-------------------| 
G|--2--2--2--2--2--2--2--2-----|----2--------2-----| 
D|--2--2--2--2--2--2--2--2-----|----2--------2-----| 
A|--0--0--0--0--0--0--0--0-----|----0--------0-----| 
E|-----------------------------|-------------------| 

Intro Reprise 

e|--------------|---------------------|--------------|--------------------| 
B|--------------|---------------------|--------------|--------------------| 
G|--------5/7---|--8/10\9/10\9/10\9---|--------5/7---|----10\9---7----5---| 
D|--5/7---5/7---|--8/10\9/10\9/10\9---|--5/7---5/7---|--8/10\9---7----5---| 
A|--5/7---3/5---|--6/8-\7/8-\7/8-\7---|--5/7---3/5---|--6/9-\7---5----3---| 
E|--3/5---------|---------------------|--3/5---------|--------------------| 

e|--------------|---------------------|--------------|--------------------| 
B|--------------|---------------------|--------------|--------------------| 
G|--------5/7---|--8/10\9/10\9/10\9---|--------5/7---|----10\9---7----5---| 
D|--5/7---5/7---|--8/10\9/10\9/10\9---|--5/7---5/7---|--8/10\9---7----5---| 
A|--5/7---3/5---|--6/8-\7/8-\7/8-\7---|--5/7---3/5---|--6/9-\7---5----3---| 
E|--3/5---------|---------------------|--3/5---------|--------------------| 

 ( Bass and Drums ) 
e|------------------|------------------| 
B|------------------|------------------| 
G|------------------|------------------| 
D|------------------|------------------| 
A|------------------|------------------| 
E|------------------|------------------| 

Main Solo(clean Tone) Let notes ring where possible 

e|--------------------|--------------------|---------------------| 
B|----------3---------|--------------------|----------3----------| 
G|-----0h2-----2------|--------------------|-----0h2-----2-------| 
D|--0-------------0h--|--3--2--0--2--3p2p--|--0-------------0----| 
A|--------------------|--------------------|-------------------0-| 
E|--------------------|--------------------|---------------------| 

e|--------------------|---------------------|--------------------| 
B|--------------------|----------3----------|--------------------| 
G|--------------------|-----0h2-----2-------|--------------------| 
D|--3--2--0--2--3p2p--|--0-------------0----|--3--2--0--2--3p2p--| 
A|--------------------|-------------------0-|--------------------| 
E|--------------------|---------------------|--------------------| 

e|---------------------|--------------------|---------------------| 
B|----------3----------|--------------------|----------3----------| 
G|-----0h2-----2-------|--------------------|-----0h2-----2-------| 
D|--0-------------0----|--3--2--0--2--3p2p--|--0-------------0----| 
A|-------------------0-|--------------------|-------------------0-| 
E|---------------------|--------------------|---------------------| 

e|--------------------|---------------------|--------------------| 
B|--------------------|----------3----------|--------------------| 
G|--------------------|-----0h2-----2-------|--------------------| 
D|--3--2--0--2--3p2p--|--0-------------0----|--3--2--0--2--3p2p--| 
A|--------------------|-------------------0-|--------------------| 
E|--------------------|---------------------|--------------------| 

e|---------------------|--------------------|---------------------| 
B|----------3----------|--------------------|----------3----------| 
G|-----0h2-----2-------|--------------------|-----0h2-----2-------| 
D|--0-------------0----|--3--2--0--2--3p2p--|--0-------------0----| 
A|-------------------0-|--------------------|-------------------0-| 
E|---------------------|--------------------|---------------------| 

e|--------------------| 
B|--------------------| 
G|--------------------| 
D|--3--2--0--2--3p2p--| 
A|--------------------| 
E|--------------------| 

Intro Reprise (Overdriven tone) 

e|--------------|---------------------|--------------|--------------------| 
B|--------------|---------------------|--------------|--------------------| 
G|--------5/7---|--8/10\9/10\9/10\9---|--------5/7---|----10\9---7----5---| 
D|--5/7---5/7---|--8/10\9/10\9/10\9---|--5/7---5/7---|--8/10\9---7----5---| 
A|--5/7---3/5---|--6/8-\7/8-\7/8-\7---|--5/7---3/5---|--6/9-\7---5----3---| 
E|--3/5---------|---------------------|--3/5---------|--------------------| 

e|--------------|---------------------|--------------|--------------------| 
B|--------------|---------------------|--------------|--------------------| 
G|--------5/7---|--8/10\9/10\9/10\9---|--------5/7---|----10\9---7----5---| 
D|--5/7---5/7---|--8/10\9/10\9/10\9---|--5/7---5/7---|--8/10\9---7----5---| 
A|--5/7---3/5---|--6/8-\7/8-\7/8-\7---|--5/7---3/5---|--6/9-\7---5----3---| 
E|--3/5---------|---------------------|--3/5---------|--------------------| 

3rd Verse (Clean Tone) Let notes ring where possible 

e|--------------------|--------------------|----------------------| 
B|----------3---------|--------------------|----------3-----------| 
G|-----0h2-----2------|--------------------|-----0h2-----2--------| 
D|--0-------------0h--|--3--2--0--2--3p2p--|--0-------------0-----| 
A|--------------------|--------------------|-------------------0h-| 
E|--------------------|--------------------|----------------------| 

e|----------------------|-------------------|--------------------| 
B|--------3-------------|----------3--------|--------------------| 
G|-----0--------0-------|-----0h2-----2-----|--------------------| 
D|-----------------2qb--|--0-------------0--|--3--2--0--2--3p2p--| 
A|--1--------3----------|-------------------|--------------------| 
E|----------------------|-------------------|--------------------| 

e|----------------------|---------------------------|-------------------| 
B|----------3-----------|--------3------------------|----------3--------| 
G|-----0h2-----2--------|-----0--------0------------|-----0h2-----2-----| 
D|--0-------------0-----|-----------------0--2--3p2p|--0-------------0--| 
A|-------------------0h-|--1--------3---------------|-------------------| 
E|----------------------|---------------------------|-------------------| 

e|--------------------|----------------------|-----------------| 
B|--------------------|----------3-----------|------3-----3----| 
G|--------------------|-----0h2-----2-----2--|------2-----2----| 
D|--3--2--0--2--3p2p--|--0-------------0-----|--0---------0----| 
A|--------------------|----------------------|-----------------| 
E|--------------------|----------------------|-----------------| 

e|-------------------|--------------------|----------------------| 
B|----------3--------|--------------------|----------3-----------| 
G|-----0h2-----2-----|--------------------|-----0h2-----2--------| 
D|--0-------------0--|--3--2--0--2--3p2p--|--0-------------0-----| 
A|-------------------|--------------------|-------------------0h-| 
E|-------------------|--------------------|----------------------| 

e|---------------------------|-----2-----2--3-----------| 
B|--------3------------------|--------3--3--2-----------| 
G|-----0--------0------------|--------------------------| 
D|-----------------0--2--3p2p|-0------------------------| 
A|--1--------3---------------|--------------------------| 
E|---------------------------|--------------------------| 

2nd Chorus (Overdriven tone) 

e|-----3----------------|---1---|------------------|--2---------2---| 
B|-----3----------------|---1---|------------------|--3---------3---| 
G|--0--0----------------|---2---|------1---2---2---|--2---0h2---2---| 
D|--0--0---------5--3---|---3---|--2---2---2---2---|--0---------0---| 
A|--2---------5-----3---|-------|--2---2---0---0---|----------------| 
E|--3-----/7--------1---|-------|--0---------------|----------------| 

e|-------1-----|-------3-------------------|-------0-----| 
B|-------1-----|-------3-------------------|-------0-----| 
G|--2----2-----|--0----0-------------------|-------1-----| 
D|--3----3-----|--0----0--------0--2p0-----|--2----2-----| 
A|--3----------|--2--------0h2----------2--|--2----------| 
E|--1----------|--3------------------------|--0----------| 

e|-----------------------------|-------------------|-------------------| 
B|-----------------------------|-------------------|-------------------| 
G|--2--2--2--2--2--2--2--2-----|----2--------2-----|-------------------| 
D|--2--2--2--2--2--2--2--2-----|----2--------2-----|-------------------| 
A|--0--0--0--0--0--0--0--0-----|----0--------0-----|-------------------| 
E|-----------------------------|-------------------|-------------------| 

Intro Reprise 

e|--------------|---------------------|--------------|--------------------| 
B|--------------|---------------------|--------------|--------------------| 
G|--------5/7---|--8/10\9/10\9/10\9---|--------5/7---|----10\9---7----5---| 
D|--5/7---5/7---|--8/10\9/10\9/10\9---|--5/7---5/7---|--8/10\9---7----5---| 
A|--5/7---3/5---|--6/8-\7/8-\7/8-\7---|--5/7---3/5---|--6/9-\7---5----3---| 
E|--3/5---------|---------------------|--3/5---------|--------------------| 

e|--------------|---------------------|--------------|--------------------| 
B|--------------|---------------------|--------------|--------------------| 
G|--------5/7---|--8/10\9/10\9/10\9---|--------5/7---|----10\9---7----5---| 
D|--5/7---5/7---|--8/10\9/10\9/10\9---|--5/7---5/7---|--8/10\9---7----5---| 
A|--5/7---3/5---|--6/8-\7/8-\7/8-\7---|--5/7---3/5---|--6/9-\7---5----3---| 
E|--3/5---------|---------------------|--3/5---------|--------------------| 

e|--------------|---------------------|--------------|--------------------| 
B|--------------|---------------------|--------------|--------------------| 
G|--------5/7---|--8/10\9/10\9/10\9---|--------5/7---|----10\9---7----5---| 
D|--5/7---5/7---|--8/10\9/10\9/10\9---|--5/7---5/7---|--8/10\9---7----5---| 
A|--5/7---3/5---|--6/8-\7/8-\7/8-\7---|--5/7---3/5---|--6/9-\7---5----3---| 
E|--3/5---------|---------------------|--3/5---------|--------------------| 

e|--------------|---------------------|--------------|--------------------| 
B|--------------|---------------------|--------------|--------------------| 
G|--------5/7---|--8/10\9/10\9/10\9---|--------5/7---|----10\9---7----5---| 
D|--5/7---5/7---|--8/10\9/10\9/10\9---|--5/7---5/7---|--8/10\9---7----5---| 
A|--5/7---3/5---|--6/8-\7/8-\7/8-\7---|--5/7---3/5---|--6/9-\7---5----3---| 
E|--3/5---------|---------------------|--3/5---------|--------------------| 

Outro 

e|-----------------------|-----------------------|-----------------------| 
B|-----------------------|-----------------------|-----------------------| 
G|-----------------------|-----------------------|--5--5--5--5--5--5--5--| 
D|--5--5--5--5--5--5--5--|--7--7--7--7--7--7--7--|--5--5--5--5--5--5--5--| 
A|--5--5--5--5--5--5--5--|--7--7--7--7--7--7--7--|--3--3--3--3--3--3--3--| 
E|--3--3--3--3--3--3--3--|--5--5--5--5--5--5--5--|-----------------------| 

e|-----------------------|---------------------|-----------------------| 
B|-----------------------|---------------------|-----------------------| 
G|--7--7--7--7--7--7--7--|-------5----3----5---|--7----7-----5----7\---| 
D|--7--7--7--7--7--7--7--|--5----5----3----5---|--7----7-----5----7\---| 
A|--5--5--5--5--5--5--5--|--5----3----1----3---|--5----5-----3----5\---| 
E|-----------------------|--3------------------|-----------------------| 

Guitar II (Overdriven Tone) 

e|--------------|-----------------------|--------------|------------------| 
B|--------------|-----------------------|--------------|------------------| 
G|--------5--7--|--10--9--10--9--10--9--|--------5--7--|----10--9--7--5---| 
D|--5--7--5--7--|--10--9--10--9--10--9--|--5--7--5--7--|--7-10--9--7--5---| 
A|--5--7--3--5--|--8---7--8---7--8---7--|--5--7--3--5--|--5\8---7--5--3---| 
E|--3--5--------|-----------------------|--3--5--------|------------------| 

e|--------------|-----------------------|--------------|------------------| 
B|--------------|-----------------------|--------------|------------------| 
G|--------5--7--|--10--9--10--9--10--9--|--------5--7--|----10--9--7--5---| 
D|--5--7--5--7--|--10--9--10--9--10--9--|--5--7--5--7--|--7-10--9--7--5---| 
A|--5--7--3--5--|--8---7--8---7--8---7--|--5--7--3--5--|--5\8---7--5--3---| 
E|--3--5--------|-----------------------|--3--5--------|------------------| 

e|--------------|-----------------------|--------------|------------------| 
B|--------------|-----------------------|--------------|------------------| 
G|--------5--7--|--10--9--10--9--10--9--|--------5--7--|----10--9--7--5---| 
D|--5--7--5--7--|--10--9--10--9--10--9--|--5--7--5--7--|--7-10--9--7--5---| 
A|--5--7--3--5--|--8---7--8---7--8---7--|--5--7--3--5--|--5\8---7--5--3---| 
E|--3--5--------|-----------------------|--3--5--------|------------------| 

e|--------------|-----------------------|--------------|------------------| 
B|--------------|-----------------------|--------------|------------------| 
G|--------5--7--|--10--9--10--9--10--9--|--------5--7--|----10--9--7--5---| 
D|--5--7--5--7--|--10--9--10--9--10--9--|--5--7--5--7--|--7-10--9--7--5---| 
A|--5--7--3--5--|--8---7--8---7--8---7--|--5--7--3--5--|--5\8---7--5--3---| 
E|--3--5--------|-----------------------|--3--5--------|------------------| 

                      (Bass and Drums) 
e|---------|---------|-------------|-------------|-------------|-------------| 
B|---------|---------|-------------|-------------|-------------|-------------| 
G|---------|---------|-------------|-------------|-------------|-------------| 
D|---------|---------|-------------|-------------|-------------|-------------| 
A|---------|---------|-------------|-------------|-------------|-------------| 
E|---------|---------|-------------|-------------|-------------|-------------| 

1st Verse (Clean tone)Let notes ring where possible 

e|-------------------|-------------------------------|-------------------| 
B|-----3----------3--|--------------------3----------|-----3----------3--| 
G|--------2--0h2-----|--------0--------0-------------|--------2--0h2-----| 
D|--0----------------|-----0--------0--------2h3p2p--|--0----------------| 
A|-------------------|--1--------3-------------------|-------------------| 
E|-------------------|-------------------------------|-------------------| 

e|-----------------------------|-----------------| 
B|--------------------3--------|---3----------3--| 
G|--------0--------0-----------|------2--0h2-----| 
D|-----0--------0--------2h3p2p|0----------------| 
A|--1--------3-----------------|-----------------| 
E|-----------------------------|-----------------| 

e|-----------------------------|-----------------| 
B|--------------------3--------|---3----------3--| 
G|--------0--------0-----------|------2--0h2-----| 
D|-----0--------0--------2h3p2p|0----------------| 
A|--1--------3-----------------|-----------------| 
E|-----------------------------|-----------------| 

e|------------------------------| 
B|--------------------3---------| 
G|--------0--------0------------| 
D|-----0--------0--------2h3p2--| 
A|--1--------3------------------| 
E|------------------------------| 

Intro reprise (Overdriven tone) 

e|--------------|-----------------------|--------------|------------------| 
B|--------------|-----------------------|--------------|------------------| 
G|--------5--7--|--10--9--10--9--10--9--|--------5--7--|----10--9--7--5---| 
D|--5--7--5--7--|--10--9--10--9--10--9--|--5--7--5--7--|--7-10--9--7--5---| 
A|--5--7--3--5--|--8---7--8---7--8---7--|--5--7--3--5--|--5\8---7--5--3---| 
E|--3--5--------|-----------------------|--3--5--------|------------------| 

e|--------------|-----------------------|--------------|------------------| 
B|--------------|-----------------------|--------------|------------------| 
G|--------5--7--|--10--9--10--9--10--9--|--------5--7--|----10--9--7--5---| 
D|--5--7--5--7--|--10--9--10--9--10--9--|--5--7--5--7--|--7-10--9--7--5---| 
A|--5--7--3--5--|--8---7--8---7--8---7--|--5--7--3--5--|--5\8---7--5--3---| 
E|--3--5--------|-----------------------|--3--5--------|------------------| 

2nd Verse (Clean tone) Let all notes ring 

e|----------------|-----3-------5-------3--|----------------| 
B|-----3-------3--|------------------------|-----3-------3--| 
G|--------0h2-----|--3-----3/5-----5\3-----|--------0h2-----| 
D|--0-------------|------------------------|--0-------------| 
A|----------------|------------------------|----------------| 
E|----------------|------------------------|----------------| 

e|-----3-------5-------3--|----------------|-----3-------5-------3--| 
B|------------------------|-----3-------3--|------------------------| 
G|--3-----3/5-----5\3-----|--------0h2-----|--3-----3/5-----5\3-----| 
D|------------------------|--0-------------|------------------------| 
A|------------------------|----------------|------------------------| 
E|------------------------|----------------|------------------------| 

e|----------------|-----3-------5-------3--|----------------| 
B|-----3-------3--|------------------------|-----3-------3--| 
G|--------0h2-----|--3-----3/5-----5\3-----|--------0h2-----| 
D|--0-------------|------------------------|--0-------------| 
A|----------------|------------------------|----------------| 
E|----------------|------------------------|----------------| 

e|-----3-------5-------3--|----------------|-----3-------5-------3--| 
B|------------------------|-----3-------3--|------------------------| 
G|--3-----3/5-----5\3-----|--------0h2-----|--3-----3/5-----5\3-----| 
D|------------------------|--0-------------|------------------------| 
A|------------------------|----------------|------------------------| 
E|------------------------|----------------|------------------------| 

e|----------------|-----3-------5-------3--|----------------| 
B|-----3-------3--|------------------------|-----3-------3--| 
G|--------0h2-----|--3-----3/5-----5\3-----|--------0h2-----| 
D|--0-------------|------------------------|--0-------------| 
A|----------------|------------------------|----------------| 
E|----------------|------------------------|----------------| 

e|-----3-------5-------3--|-----2-----------2--| 
B|------------------------|--------3-----3-----| 
G|--3-----3/5-----5\3-----|-----------2--------| 
D|------------------------|--0-----------------| 
A|------------------------|--------------------| 
E|------------------------|--------------------| 

1st Chorus (Overdriven tone) 

e|-----3-----------|-----------|----------------|-----------|-------------| 
B|-----3-----------|-----------|----------------|-----------|-------------| 
G|--0--0--------0--|-----2-----|------------2---|-----7-----|---2-----2---| 
D|--0--0-----0-----|-----3-----|--2----5----2---|-----7-----|---3-----3---| 
A|--2-----2--------|-----3-----|--2----5----0---|-----5-----|---3-----3---| 
E|--3--------------|-----1-----|--0----3--------|-----------|---1-----1---| 

e|----------------|-----------------|--------------------------|-------------| 
B|----------------|-----------------|--------------------------|-------------| 
G|--4-------------|-----------------|--2--2--2--2--2--2--2--2--|---2-----2---| 
D|--5-------------|--2--2--2--2--2--|--2--2--2--2--2--2--2--2--|---2-----2---| 
A|--5-------5--7--|--2--2--2--2--2--|--0--0--0--0--0--0--0--0--|---0-----0---| 
E|--3--5/7--------|--0--0--0--0--0--|--------------------------|-------------| 

Intro reprise 

e|--------------|-----------------------|--------------|------------------| 
B|--------------|-----------------------|--------------|------------------| 
G|--------5--7--|--10--9--10--9--10--9--|--------5--7--|----10--9--7--5---| 
D|--5--7--5--7--|--10--9--10--9--10--9--|--5--7--5--7--|--7-10--9--7--5---| 
A|--5--7--3--5--|--8---7--8---7--8---7--|--5--7--3--5--|--5\8---7--5--3---| 
E|--3--5--------|-----------------------|--3--5--------|------------------| 

e|--------------|-----------------------|--------------|------------------| 
B|--------------|-----------------------|--------------|------------------| 
G|--------5--7--|--10--9--10--9--10--9--|--------5--7--|----10--9--7--5---| 
D|--5--7--5--7--|--10--9--10--9--10--9--|--5--7--5--7--|--7-10--9--7--5---| 
A|--5--7--3--5--|--8---7--8---7--8---7--|--5--7--3--5--|--5\8---7--5--3---| 
E|--3--5--------|-----------------------|--3--5--------|------------------| 

 ( Bass and Drums ) 
e|------------------|------------------| 
B|------------------|------------------| 
G|------------------|------------------| 
D|------------------|------------------| 
A|------------------|------------------| 
E|------------------|------------------| 

Main Solo (Clean tone)Let all notes ring 

e|----------------|-----3-------5-------3--|----------------| 
B|-----3-------3--|------------------------|-----3-------3--| 
G|--------0h2-----|--3-----3/5-----5\3-----|--------0h2-----| 
D|--0-------------|------------------------|--0-------------| 
A|----------------|------------------------|----------------| 
E|----------------|------------------------|----------------| 

e|-----3-------5-------3--|----------------|-----3-------5-------3--| 
B|------------------------|-----3-------3--|------------------------| 
G|--3-----3/5-----5\3-----|--------0h2-----|--3-----3/5-----5\3-----| 
D|------------------------|--0-------------|------------------------| 
A|------------------------|----------------|------------------------| 
E|------------------------|----------------|------------------------| 

e|----------------|-----3-------5-------3--|----------------| 
B|-----3-------3--|------------------------|-----3-------3--| 
G|--------0h2-----|--3-----3/5-----5\3-----|--------0h2-----| 
D|--0-------------|------------------------|--0-------------| 
A|----------------|------------------------|----------------| 
E|----------------|------------------------|----------------| 

e|-----3-------5-------3--|----------------|-----3-------5-------3--| 
B|------------------------|-----3-------3--|------------------------| 
G|--3-----3/5-----5\3-----|--------0h2-----|--3-----3/5-----5\3-----| 
D|------------------------|--0-------------|------------------------| 
A|------------------------|----------------|------------------------| 
E|------------------------|----------------|------------------------| 

e|----------------|-----3-------5-------3--|----------------| 
B|-----3-------3--|------------------------|-----3-------3--| 
G|--------0h2-----|--3-----3/5-----5\3-----|--------0h2-----| 
D|--0-------------|------------------------|--0-------------| 
A|----------------|------------------------|----------------| 
E|----------------|------------------------|----------------| 

e|-----3-------5-------3--| 
B|------------------------| 
G|--3-----3/5-----5\3-----| 
D|------------------------| 
A|------------------------| 
E|------------------------| 

Intro reprise (Overdriven tone) 

e|--------------|-----------------------|--------------|------------------| 
B|--------------|-----------------------|--------------|------------------| 
G|--------5--7--|--10--9--10--9--10--9--|--------5--7--|----10--9--7--5---| 
D|--5--7--5--7--|--10--9--10--9--10--9--|--5--7--5--7--|--7-10--9--7--5---| 
A|--5--7--3--5--|--8---7--8---7--8---7--|--5--7--3--5--|--5\8---7--5--3---| 
E|--3--5--------|-----------------------|--3--5--------|------------------| 

e|--------------|-----------------------|--------------|------------------| 
B|--------------|-----------------------|--------------|------------------| 
G|--------5--7--|--10--9--10--9--10--9--|--------5--7--|----10--9--7--5---| 
D|--5--7--5--7--|--10--9--10--9--10--9--|--5--7--5--7--|--7-10--9--7--5---| 
A|--5--7--3--5--|--8---7--8---7--8---7--|--5--7--3--5--|--5\8---7--5--3---| 
E|--3--5--------|-----------------------|--3--5--------|------------------| 

3rd Verse (Clean tone)Let all notes ring 

e|----------------|-----3-------5-------3--|----------------| 
B|-----3-------3--|------------------------|-----3-------3--| 
G|--------0h2-----|--3-----3/5-----5\3-----|--------0h2-----| 
D|--0-------------|------------------------|--0-------------| 
A|----------------|------------------------|----------------| 
E|----------------|------------------------|----------------| 

e|-----3-------5-------3--|----------------|-----3-------5-------3--| 
B|------------------------|-----3-------3--|------------------------| 
G|--3-----3/5-----5\3-----|--------0h2-----|--3-----3/5-----5\3-----| 
D|------------------------|--0-------------|------------------------| 
A|------------------------|----------------|------------------------| 
E|------------------------|----------------|------------------------| 

e|----------------|-----3-------5-------3--|----------------| 
B|-----3-------3--|------------------------|-----3-------3--| 
G|--------0h2-----|--3-----3/5-----5\3-----|--------0h2-----| 
D|--0-------------|------------------------|--0-------------| 
A|----------------|------------------------|----------------| 
E|----------------|------------------------|----------------| 

e|-----3-------5-------3--|----------------|-----3-------5-------3--| 
B|------------------------|-----3-------3--|------------------------| 
G|--3-----3/5-----5\3-----|--------0h2-----|--3-----3/5-----5\3-----| 
D|------------------------|--0-------------|------------------------| 
A|------------------------|----------------|------------------------| 
E|------------------------|----------------|------------------------| 

e|----------------|-----3-------5-------3--|----------------| 
B|-----3-------3--|------------------------|-----3-------3--| 
G|--------0h2-----|--3-----3/5-----5\3-----|--------0h2-----| 
D|--0-------------|------------------------|--0-------------| 
A|----------------|------------------------|----------------| 
E|----------------|------------------------|----------------| 

e|-----3-------5-------3--|-----2-----------2--| 
B|------------------------|--------3-----3-----| 
G|--3-----3/5-----5\3-----|-----------2--------| 
D|------------------------|--0-----------------| 
A|------------------------|--------------------| 
E|------------------------|--------------------| 

2nd Chorus (Overdriven tone) 

e|-----3-----------|-----------|----------------|-----------|-------------| 
B|-----3-----------|-----------|----------------|-----------|-------------| 
G|--0--0--------0--|-----2-----|------------2---|-----7-----|---2-----2---| 
D|--0--0-----0-----|-----3-----|--2----5----2---|-----7-----|---3-----3---| 
A|--2-----2--------|-----3-----|--2----5----0---|-----5-----|---3-----3---| 
E|--3--------------|-----1-----|--0----3--------|-----------|---1-----1---| 

e|----------------|-----------------|--------------------------|-------------| 
B|----------------|-----------------|--------------------------|-------------| 
G|--4-------------|-----------------|--2--2--2--2--2--2--2--2--|---2-----2---| 
D|--5-------------|--2--2--2--2--2--|--2--2--2--2--2--2--2--2--|---2-----2---| 
A|--5-------5--7--|--2--2--2--2--2--|--0--0--0--0--0--0--0--0--|---0-----0---| 
E|--3--5/7--------|--0--0--0--0--0--|--------------------------|-------------| 

e|--------------------| 
B|--------------------| 
G|--------------------| 
D|--------------------| 
A|--------------------| 
E|--------------------| 

Intro reprise 

e|--------------|-----------------------|--------------|------------------| 
B|--------------|-----------------------|--------------|------------------| 
G|--------5--7--|--10--9--10--9--10--9--|--------5--7--|----10--9--7--5---| 
D|--5--7--5--7--|--10--9--10--9--10--9--|--5--7--5--7--|--7-10--9--7--5---| 
A|--5--7--3--5--|--8---7--8---7--8---7--|--5--7--3--5--|--5\8---7--5--3---| 
E|--3--5--------|-----------------------|--3--5--------|------------------| 

e|--------------|-----------------------|--------------|------------------| 
B|--------------|-----------------------|--------------|------------------| 
G|--------5--7--|--10--9--10--9--10--9--|--------5--7--|----10--9--7--5---| 
D|--5--7--5--7--|--10--9--10--9--10--9--|--5--7--5--7--|--7-10--9--7--5---| 
A|--5--7--3--5--|--8---7--8---7--8---7--|--5--7--3--5--|--5\8---7--5--3---| 
E|--3--5--------|-----------------------|--3--5--------|------------------| 

e|--------------|-----------------------|--------------|------------------| 
B|--------------|-----------------------|--------------|------------------| 
G|--------5--7--|--10--9--10--9--10--9--|--------5--7--|----10--9--7--5---| 
D|--5--7--5--7--|--10--9--10--9--10--9--|--5--7--5--7--|--7-10--9--7--5---| 
A|--5--7--3--5--|--8---7--8---7--8---7--|--5--7--3--5--|--5\8---7--5--3---| 
E|--3--5--------|-----------------------|--3--5--------|------------------| 

e|--------------|-----------------------|--------------|------------------| 
B|--------------|-----------------------|--------------|------------------| 
G|--------5--7--|--10--9--10--9--10--9--|--------5--7--|----10--9--7--5---| 
D|--5--7--5--7--|--10--9--10--9--10--9--|--5--7--5--7--|--7-10--9--7--5---| 
A|--5--7--3--5--|--8---7--8---7--8---7--|--5--7--3--5--|--5\8---7--5--3---| 
E|--3--5--------|-----------------------|--3--5--------|------------------| 

Outro 

  Palm mute 
e|-----------------------|---------------------------| 
B|-----------------------|---------------------------| 
G|-----------------------|---------------------------| 
D|--5--5--5--5--5--5--5--|--7--7--7--7--7--7--7--7---| 
A|--5--5--5--5--5--5--5--|--7--7--7--7--7--7--7--7---| 
E|--3--3--3--3--3--3--3--|--5--5--5--5--5--5--5--5---| 

e|-----------------------|-----------------------|--------------|------------| 
B|-----------------------|-----------------------|--------------|------------| 
G|--5--5--5--5--5--5--5--|--7--7--7--7--7--7--7--|--------------|-7--7--5-7\-| 
D|--5--5--5--5--5--5--5--|--7--7--7--7--7--7--7--|-----5--3--5--|-7--7--5-7\-| 
A|--3--3--3--3--3--3--3--|--5--5--5--5--5--5--5--|--5--3--1--3--|-5--5--3-5\-| 
E|-----------------------|-----------------------|--3-----------|------------| 

Guitar I (Overdriven tone) 

Main solo 

e|-----------------------|--------------|-----------------------| 
B|--13b--13b--13pbr--10--|--13------10--|-----------------------| 
G|-----------------------|------12------|--12b--12b--12pbr--10--| 
D|-----------------------|--------------|-----------------------| 
A|-----------------------|--------------|-----------------------| 
E|-----------------------|--------------|-----------------------| 

e|---------12----------|----------------------13--------|---------------| 
B|-------------10--13--|--13b--13b--13b--13b------13br--|-----13br--10--| 
G|--9------------------|--------------------------------|---------------| 
D|-----10--------------|--------------------------------|---------------| 
A|---------------------|--------------------------------|---------------| 
E|---------------------|--------------------------------|---------------| 

e|----------------|----------------------|----------------------|------------| 
B|----------------|----------------------|----------------------|------------| 
G|------12br--10--|--12------10------10--|--12b--12b--12b--12b--|--12br--10--| 
D|----------------|------12------12------|----------------------|------------| 
A|----------------|----------------------|----------------------|------------| 
E|----------------|----------------------|----------------------|------------| 

e|---------------------|--------------|--------------------------------| 
B|---------------------|--------------|--------------------------------| 
G|--12--12b--12br--10--|--12----------|---------------------12---------| 
D|---------------------|------12--10--|----------10--12/14------14\12--| 
A|---------------------|--------------|--10--12------------------------| 
E|---------------------|--------------|--------------------------------| 

e|-------------|--------------12hb--|--12hbr--10--12--|--12br--10--15b--| 
B|-------------|------10------------|-----------------|-----------------| 
G|-------------|--10------10--------|-----------------|-----------------| 
D|--10--10/12--|--------------------|-----------------|-----------------| 
A|-------------|--------------------|-----------------|-----------------| 
E|-------------|--------------------|-----------------|-----------------| 

Guitar II (overdriven tone) 

 Main harmony solo 

e|-----------------------|--------------|-------------------------| 
B|--13b--13b--13pbr--10--|--13------10--|--12hb--12hb--12hbr--10--| 
G|-----------------------|------12------|-------------------------| 
D|-----------------------|--------------|-------------------------| 
A|-----------------------|--------------|-------------------------| 
E|-----------------------|--------------|-------------------------| 

e|----------------------------|--------------------------------|------------| 
B|--12------15b---------------|----------------------13--------|------------| 
G|------12----------------10--|--12b--12b--12b--12b------12br--|--12br--10--| 
D|-----------------10/12------|--------------------------------|------------| 
A|----------------------------|--------------------------------|------------| 
E|----------------------------|--------------------------------|------------| 

e|----------------|----------------------|--------------------------| 
B|----------------|----------------------|--12hb--12hb--12hb--12hb--| 
G|--10--9hbr------|------------------10--|--------------------------| 
D|------------10--|--12------10--12------|--------------------------| 
A|----------------|------12--------------|--------------------------| 
E|----------------|----------------------|--------------------------| 

e|------------|---------------------|-------------|------------------------| 
B|--13br--10--|--13--13b--13br--10--|--13---------|------------------------| 
G|------------|---------------------|------10--9--|------------------------| 
D|------------|---------------------|-------------|-------------------10---| 
A|------------|---------------------|-------------|---------8--10/12-------| 
E|------------|---------------------|-------------|--8--10-----------------| 

e|----------------|--------------------|----------------|-----------------| 
B|----------------|--------------------|----------------|------------13b--| 
G|----------------|----------10--12b---|--12br--10--12--|--12br--10-------| 
D|----------------|--10--12------------|----------------|-----------------| 
A|--12\10--8--12--|--------------------|----------------|-----------------| 
E|----------------|--------------------|----------------|-----------------| 

Outro Solo 

Guitar I (Overdriven tone) 

e|------------13-------------|------------|----------------------------------| 
B|--13b--13b------13b--13br--|--13br--10--|--10------------------------------| 
G|---------------------------|------------|------10--12------10--------------| 
D|---------------------------|------------|--------------12------10--12------| 
A|---------------------------|------------|------------------------------12--| 
E|---------------------------|------------|----------------------------------| 

e|-------------| 
B|-------------| 
G|--7br--5--7--| 
D|-------------| 
A|-------------| 
E|-------------| 

Guitar II (Overdriven tone) 

Harmony 

e|---------------------------|------------|--13------10----------------------| 
B|------------13-------------|------------|------13------10--13------10--11--| 
G|--12b--12b------12b--12br--|--12br--10--|----------------------12----------| 
D|---------------------------|------------|----------------------------------| 
A|---------------------------|------------|----------------------------------| 
E|---------------------------|------------|----------------------------------| 

e|----------------| 
B|------------13--| 
G|--12br--10------| 
D|----------------| 
A|----------------| 
E|----------------| 



| /   slide up 
| \   slide down 
| h   hammer-on 
| p   pull-off 
| ~   vibrato 
| +   harmonic 
| x   Mute note 
| b   Bend 
| pb  Pre-bend 
| br  Bend release 
| pbr Pre-bend release 
| brb Bend release bend 

 
		  

See also:

tabs Guns N' Roses - Don't Cry tabs Aerosmith - Dream On tabs Guns N' Roses - Sweet Child o' mine tabs Guns N' Roses - Welcome to The Jungle tabs Rage Against The Machine - Killing In The Name (ver. 2) tabs The Doors - People Are Strange
e-chords

Other versions:

tabs Blackfoot - Take A Train
auto scroll beats size up size down change color hide chords drawings
tab show chords e-chords YouTube Clip e-chords hide all tabs e-chords go to top tab

share with facebook