Blackfoot

Stranger On The Road

Blackfoot

tabs nolevel nolevel

by  HEBEALMEIDA

save to print version add songbook text version e-mail correct tuner
chordsukulelecavacokeyboardtabbassdrumsharmonicaflute Guitar Pro
close

there isn't a video lesson for this song

chords

Stranger On The Road

	  		

Guitar I (Overdriven) 

Intro 

e|-----5-----|-----3-----|--2---3---2-------|------------| 
B|-----5-----|-----3-----|--3---3---3-------|------------| 
G|-----6-----|-----4-----|--2---2---2---0---|---2----2---| 
D|-----7-----|-----5-----|--0---0---0---0---|---2----2---| 
A|-----------|-----------|------------------|---0----0---| 
E|-----------|-----------|------------------|------------| 

e|-----5-----|-----3-----|--2---3---2-------|-----------| 
B|-----5-----|-----3-----|--3---3---3-------|-----------| 
G|-----6-----|-----4-----|--2---2---2---0---|-----2-----| 
D|-----7-----|-----5-----|--0---0---0---0---|-----2-----| 
A|-----------|-----------|------------------|-----0-----| 
E|-----------|-----------|------------------|-----------| 

e|------------------|----------------------|--------------------2--|----------| 
B|------------------|----------------------|--------------------3--|----------| 
G|--0---2----0---2--|--4/5--4/5----2----2--|--5\4--5\4--5\4--0--2--|----------| 
D|--0---2----0---2--|--4/5--4/5----2----2--|--5\4--5\4--5\4--0--0--|----------| 
A|------------------|----------------------|-----------------------|--2-------| 
E|------------------|----------------------|-----------------------|--0--3bd--| 

e|------------------|-------------------3--|--2------3--| 
B|------------------|-------------------3--|--3------3--| 
G|--0---2----0---2--|--4/5--4/5----2----0--|--2------0--| 
D|--0---2----0---2--|--4/5--4/5----2----0--|--0------0--| 
A|------------------|-------------------2--|---------2--| 
E|------------------|-------------------3--|---------3--| 

1st Verse 

e|------------------|----------------------|--------------------2--|---------| 
B|------------------|----------------------|--------------------3--|---------| 
G|--0---2----0---2--|--4/5--4/5----2----2--|--5\4--5\4--5\4--0--2--|---------| 
D|--0---2----0---2--|--4/5--4/5----2----2--|--5\4--5\4--5\4--0--0--|---------| 
A|------------------|----------------------|-----------------------|---------| 
E|------------------|----------------------|-----------------------|---3bd---| 

e|------------------|----------------------|--------------------2--|----------| 
B|------------------|----------------------|--------------------3--|----------| 
G|--0---2----0---2--|--4/5--4/5----2----2--|--5\4--5\4--5\4--0--2--|----------| 
D|--0---2----0---2--|--4/5--4/5----2----2--|--5\4--5\4--5\4--0--0--|----------| 
A|------------------|----------------------|-----------------------|--2-------| 
E|------------------|----------------------|-----------------------|--0--3bd--| 

e|------------------|----------------------|--------------------2--|---------| 
B|------------------|----------------------|--------------------3--|---------| 
G|--0---2----0---2--|--4/5--4/5----2----2--|--5\4--5\4--5\4--0--2--|---------| 
D|--0---2----0---2--|--4/5--4/5----2----2--|--5\4--5\4--5\4--0--0--|---------| 
A|------------------|----------------------|-----------------------|---------| 
E|------------------|----------------------|-----------------------|---3bd---| 

e|------------------|-------------------3--|-----2-----| 
B|------------------|-------------------3--|-----3-----| 
G|--0---2----0---2--|--4/5--4/5----2----0--|-----2-----| 
D|--0---2----0---2--|--4/5--4/5----2----0--|-----0-----| 
A|------------------|-------------------2--|-----------| 
E|------------------|-------------------3--|-----------| 

1st Chorus 

e|---------------------|-----------------| 
B|---------------------|--------------8--| 
G|--9---7---9\---9--7--|--9---7-------7--| 
D|--9---7---9\---9--7--|--9---7---9------| 
A|---------------------|----------9------| 
E|---------------------|-----------------| 

e|---------------------|-----------------| 
B|---------------------|------8----------| 
G|--9---7---9\---9--7--|--9---7---9---7--| 
D|--9---7---9\---9--7--|--9-------9---7--| 
A|---------------------|-----------------| 
E|---------------------|-----------------| 

e|------------------|----------------------|-------------------------| 
B|------------------|--------------8-------|-------------------------| 
G|--9---7---9\---7--|--9---7-------7---2b--|--2pbr--0----------------| 
D|--9---7---9\---7--|--9---7---9-----------|-----------2--0----------| 
A|------------------|----------9-----------|-----------------3--0----| 
E|------------------|----------------------|-------------------------| 

e|-----5-----|-----3-----| 
B|-----5-----|-----3-----| 
G|-----6-----|-----4-----| 
D|-----7-----|-----5-----| 
A|-----------|-----------| 
E|-----------|-----------| 

2nd Verse 

e|------------------|----------------------|--------------------2--|---------| 
B|------------------|----------------------|--------------------3--|---------| 
G|--0---2----0---2--|--4/5--4/5----2----2--|--5\4--5\4--5\4--0--2--|---------| 
D|--0---2----0---2--|--4/5--4/5----2----2--|--5\4--5\4--5\4--0--0--|---------| 
A|------------------|----------------------|-----------------------|---------| 
E|------------------|----------------------|-----------------------|---3bd---| 

e|------------------|----------------------|--------------------2--|----------| 
B|------------------|----------------------|--------------------3--|----------| 
G|--0---2----0---2--|--4/5--4/5----2----2--|--5\4--5\4--5\4--0--2--|----------| 
D|--0---2----0---2--|--4/5--4/5----2----2--|--5\4--5\4--5\4--0--0--|----------| 
A|------------------|----------------------|-----------------------|--2-------| 
E|------------------|----------------------|-----------------------|--0--3bd--| 

e|------------------|----------------------|--------------------2--|---------| 
B|------------------|----------------------|--------------------3--|---------| 
G|--0---2----0---2--|--4/5--4/5----2----2--|--5\4--5\4--5\4--0--2--|---------| 
D|--0---2----0---2--|--4/5--4/5----2----2--|--5\4--5\4--5\4--0--0--|---------| 
A|------------------|----------------------|-----------------------|---------| 
E|------------------|----------------------|-----------------------|---3bd---| 

e|------------------|-------------------3--|-----2-----3--|--2-----3----| 
B|------------------|-------------------3--|-----3-----3--|--3-----3----| 
G|--0---2----0---2--|--4/5--4/5----2----0--|-----2-----0--|--2-----0----| 
D|--0---2----0---2--|--4/5--4/5----2----0--|-----0-----0--|--0-----0----| 
A|------------------|-------------------2--|-----------2--|--------2----| 
E|------------------|-------------------3--|-----------3--|--------3----| 

e|--2----------|-----3-----| 
B|--3----------|-----3-----| 
G|--2-----2----|-----0-----| 
D|--0-----2----|-----0-----| 
A|--------0----|-----2-----| 
E|-------------|-----3-----| 

Solo 

e|--------------------|----------------------|--------------------------| 
B|--5--4--5~~~--4--5--|--7hb--7hb--5--5--8b--|--8pbr--5-----------------| 
G|--------------------|----------------------|-----------8--7--5--------| 
D|--------------------|----------------------|--------------------7--5--| 
A|--------------------|----------------------|--------------------------| 
E|--------------------|----------------------|--------------------------| 

e|-------------|-------------|-----------------|--------------------------| 
B|-------------|-------------|--------------6--|--5-----8--6--5-----------| 
G|--5b----5b---|--5---4---5--|--7---5---7------|-----7-----------7--5--4--| 
D|-------------|-------------|-----------------|--------------------------| 
A|-------------|-------------|-----------------|--------------------------| 
E|-------------|-------------|-----------------|--------------------------| 

e|-----------|---------------------|-----------------10b--| 
B|--------5--|--7hbr--5--8b--------|----------------------| 
G|--7--------|---------------5--7--|--7br--5--7b--5-------| 
D|-----------|---------------------|----------------------| 
A|-----------|---------------------|----------------------| 
E|-----------|---------------------|----------------------| 

e|--10pbr--8--7----------------|-------7---| 
B|---------------10--8---------|--9--------| 
G|----------------------10--9--|-----------| 
D|-----------------------------|-----------| 
A|-----------------------------|-----------| 
E|-----------------------------|-----------| 

2nd Chorus 

e|---------------------|-----------------| 
B|---------------------|--------------8--| 
G|--9---7---9\---9--7--|--9---7-------7--| 
D|--9---7---9\---9--7--|--9---7---9------| 
A|---------------------|----------9------| 
E|---------------------|-----------------| 

e|---------------------|-------------------| 
B|---------------------|------8------------| 
G|--9---7---9\---9--7--|--9---7---9---7----| 
D|--9---7---9\---9--7--|--9-------9---7----| 
A|---------------------|-------------------| 
E|---------------------|-------------------| 

e|------------------|----------------------|-------------------------| 
B|------------------|--------------8-------|-------------------------| 
G|--9---7---9\---7--|--9---7-------7---2b--|--2pbr--0----------------| 
D|--9---7---9\---7--|--9---7---9-----------|-----------2--0----------| 
A|------------------|----------9-----------|-----------------3--0----| 
E|------------------|----------------------|-------------------------| 

e|-----5-----|-----3-----| 
B|-----5-----|-----3-----| 
G|-----6-----|-----4-----| 
D|-----7-----|-----5-----| 
A|-----------|-----------| 
E|-----------|-----------| 

3rd Verse 

e|------------------|----------------------|----------------------------| 
B|------------------|----------------------|----------------------5br---| 
G|--0---2----0---2--|--4/5--4/5----2----2--|--5\4--5\4--5\4--0----5br---| 
D|--0---2----0---2--|--4/5--4/5----2----2--|--5\4--5\4--5\4--0----------| 
A|------------------|----------------------|----------------------------| 
E|------------------|----------------------|----------------------------| 

e|------------------|----------------------|--------------------2--|----------| 
B|------------------|----------------------|--------------------3--|----------| 
G|--0---2----0---2--|--4/5--4/5----2----2--|--5\4--5\4--5\4--0--2--|----------| 
D|--0---2----0---2--|--4/5--4/5----2----2--|--5\4--5\4--5\4--0--0--|----------| 
A|------------------|----------------------|-----------------------|--2-------| 
E|------------------|----------------------|-----------------------|--0--3bd--| 

e|------------------|----------------------|--------------------2--|---------| 
B|------------------|----------------------|--------------------3--|---------| 
G|--0---2----0---2--|--4/5--4/5----2----2--|--5\4--5\4--5\4--0--2--|---------| 
D|--0---2----0---2--|--4/5--4/5----2----2--|--5\4--5\4--5\4--0--0--|---------| 
A|------------------|----------------------|-----------------------|---------| 
E|------------------|----------------------|-----------------------|---3bd---| 

e|------------------|-------------------3--|-----2-----3--|--2-----3----| 
B|------------------|-------------------3--|-----3-----3--|--3-----3----| 
G|--0---2----0---2--|--4/5--4/5----2----0--|-----2-----0--|--2-----0----| 
D|--0---2----0---2--|--4/5--4/5----2----0--|-----0-----0--|--0-----0----| 
A|------------------|-------------------2--|-----------2--|--------2----| 
E|------------------|-------------------3--|-----------3--|--------3----| 

e|-----2-----| 
B|-----3-----| 
G|-----2-----| 
D|-----0-----| 
A|-----------| 
E|-----------| 

Outro 

e|------------------|-------------------3--|-----2-----3--|--2----------| 
B|------------------|-------------------3--|-----3-----3--|--3----------| 
G|--0---2----0---2--|--4/5--4/5----2----0--|-----2-----0--|--2------2b--| 
D|--0---2----0---2--|--4/5--4/5----2----0--|-----0-----0--|--0----------| 
A|------------------|-------------------2--|-----------2--|-------------| 
E|------------------|-------------------3--|-----------3--|-------------| 

e|--------------------------|---------------------| 
B|--------------------------|---------------------| 
G|--2pbr--2--0--------------|--2------------------| 
D|--------------2--0--------|--2------------------| 
A|--------------------3--0--|--0------h\/\/\/-----| 
E|--------------------------|---------------------| 

Guitar II (Over Driven) 

Intro 

e|-----5-----|-----3-----|--2---3---2-------------|--5--------5-----| 
B|-----5-----|-----3-----|--3---3---3-------------|--5--------5-----| 
G|-----2-----|-----0-----|--2---2---2-------------|--2--------2-----| 
D|-----2-----|-----0-----|--0---0---0-------------|--2--------2-----| 
A|-----0-----|-----2-----|---------------3bd------|--0--------0-----| 
E|-----------|-----3-----|------------------------|-----------------| 

e|-----5-----|-----3-----|--2---3----------------|-----5-----|-----------| 
B|-----5-----|-----3-----|--3---3----------------|-----5-----|-----------| 
G|-----2-----|-----0-----|--2---2----------------|-----2-----|-----------| 
D|-----2-----|-----0-----|--0---0----------------|-----2-----|----12\----| 
A|-----0-----|-----2-----|-----------0--3bd------|-----0-----|----12\----| 
E|-----------|-----3-----|-----------------------|-----------|-----------| 

e|----------------------|--------------------|--------------------2--|---------| 
B|----------------------|--------------------|--------------------3--|---------| 
G|--0--2--0--2---0---2--|--4/5--4/5---2---2--|--5\4--5\4--5\4--0--2--|-------0-| 
D|--0--2--0--2---0---2--|--4/5--4/5---2---2--|--5\4--5\4--5\4--0--0--|-------0-| 
A|----------------------|--------------------|-----------------------|--2------| 
E|----------------------|--------------------|-----------------------|--0------| 

e|------------------------|-------------------3--|--2------3--| 
B|------------------------|-------------------3--|--3------3--| 
G|--0---2----0---2--0--2--|--4/5--4/5----2----0--|--2------0--| 
D|--0---2----0---2--0--2--|--4/5--4/5----2----0--|--0------0--| 
A|------------------------|-------------------2--|---------2--| 
E|------------------------|-------------------3--|---------3--| 

1st Verse 

e|----------------------|--------------------|--------------------2--|-------| 
B|----------------------|--------------------|--------------------3--|-------| 
G|--0--2--0--2---0---2--|--4/5--4/5---2---2--|--5\4--5\4--5\4--0--2--|---0---| 
D|--0--2--0--2---0---2--|--4/5--4/5---2---2--|--5\4--5\4--5\4--0--0--|---0---| 
A|----------------------|--------------------|-----------------------|-------| 
E|----------------------|--------------------|-----------------------|-------| 

e|----------------------|--------------------|--------------------2--|---------| 
B|----------------------|--------------------|--------------------3--|---------| 
G|--0--2--0--2---0---2--|--4/5--4/5---2---2--|--5\4--5\4--5\4--0--2--|-------0-| 
D|--0--2--0--2---0---2--|--4/5--4/5---2---2--|--5\4--5\4--5\4--0--0--|-------0-| 
A|----------------------|--------------------|-----------------------|--2------| 
E|----------------------|--------------------|-----------------------|--0------| 

e|----------------------|--------------------|--------------------2--|-------| 
B|----------------------|--------------------|--------------------3--|-------| 
G|--0--2--0--2---0---2--|--4/5--4/5---2---2--|--5\4--5\4--5\4--0--2--|---0---| 
D|--0--2--0--2---0---2--|--4/5--4/5---2---2--|--5\4--5\4--5\4--0--0--|---0---| 
A|----------------------|--------------------|-----------------------|-------| 
E|----------------------|--------------------|-----------------------|-------| 

e|----------------------|-----------------3--|----2----| 
B|----------------------|-----------------3--|----3----| 
G|--0--2--0--2---0---2--|--4/5--4/5---2---0--|----2----| 
D|--0--2--0--2---0---2--|--4/5--4/5---2---0--|----0----| 
A|----------------------|-----------------2--|---------| 
E|----------------------|-----------------3--|---------| 

1st Chorus 

e|---------------------|-------------------| 
B|---------------------|-------------------| 
G|--9---7---9\---9--7--|--9---7-------12---| 
D|--9---7---9\---9--7--|--9---7---9---12---| 
A|---------------------|----------9--------| 
E|---------------------|-------------------| 

e|---------------------|------------------| 
B|---------------------|------------------| 
G|--9---7---9\---9--7--|--9---12---9---7--| 
D|--9---7---9\---9--7--|--9---12---9---7--| 
A|---------------------|------------------| 
E|---------------------|------------------| 

e|------------------|-----------------------|-------------------------| 
B|------------------|-----------------------|-------------------------| 
G|--9---7---9\---7--|--9---7-------12---2b--|--2pbr--0----------------| 
D|--9---7---9\---7--|--9---7---9---12-------|-----------2--0----------| 
A|------------------|----------9------------|-----------------3--0----| 
E|------------------|-----------------------|-------------------------| 

e|-----------|-----3-----| 
B|-----------|-----3-----| 
G|-----2-----|-----0-----| 
D|-----2-----|-----0-----| 
A|-----0-----|-----2-----| 
E|-----------|-----3-----| 

2nd Verse 

e|----------------------|--------------------|--------------------2--|-------| 
B|----------------------|--------------------|--------------------3--|-------| 
G|--0--2--0--2---0---2--|--4/5--4/5---2---2--|--5\4--5\4--5\4--0--2--|---0---| 
D|--0--2--0--2---0---2--|--4/5--4/5---2---2--|--5\4--5\4--5\4--0--0--|---0---| 
A|----------------------|--------------------|-----------------------|-------| 
E|----------------------|--------------------|-----------------------|-------| 

e|----------------------|--------------------|--------------------2--|---------| 
B|----------------------|--------------------|--------------------3--|---------| 
G|--0--2--0--2---0---2--|--4/5--4/5---2---2--|--5\4--5\4--5\4--0--2--|-------0-| 
D|--0--2--0--2---0---2--|--4/5--4/5---2---2--|--5\4--5\4--5\4--0--0--|-------0-| 
A|----------------------|--------------------|-----------------------|--2------| 
E|----------------------|--------------------|-----------------------|--0------| 

e|----------------------|--------------------|--------------------2--|-------| 
B|----------------------|--------------------|--------------------3--|-------| 
G|--0--2--0--2---0---2--|--4/5--4/5---2---2--|--5\4--5\4--5\4--0--2--|---0---| 
D|--0--2--0--2---0---2--|--4/5--4/5---2---2--|--5\4--5\4--5\4--0--0--|---0---| 
A|----------------------|--------------------|-----------------------|-------| 
E|----------------------|--------------------|-----------------------|-------| 

e|----------------------|-----------------3--|----2----3--|----2----3--| 
B|----------------------|-----------------3--|----3----3--|----3----3--| 
G|--0--2--0--2---0---2--|--4/5--4/5---2---0--|----2----0--|----2----3--| 
D|--0--2--0--2---0---2--|--4/5--4/5---2---0--|----0----0--|----0----0--| 
A|----------------------|-----------------2--|---------2--|---------2--| 
E|----------------------|-----------------3--|---------3--|---------3--| 

e|--2---------|----3-----| 
B|--3---------|----3-----| 
G|--2----2----|----0-----| 
D|--0----2----|----0-----| 
A|-------0----|----2-----| 
E|------------|----3-----| 

Solo 

e|---------------------|-------------------------|---------------------------| 
B|---------------------|-------------------------|---------------------------| 
G|--5---4---5---4---5--|--7tqb---7tqb--------7b--|--7pbr---5-----------------| 
D|---------------------|---------------7--5------|------------7--5--4--2-----| 
A|---------------------|-------------------------|------------------------4--| 
E|---------------------|-------------------------|---------------------------| 

e|--------------|---------------|---------------|-------------------------| 
B|--------------|---------------|---------------|-------5-----------------| 
G|--------------|---------------|---------------|--7p5-----7--5-----------| 
D|--4hb----4hb--|--7----5----7--|--9----7----9--|----------------7--5-----| 
A|--------------|---------------|---------------|----------------------7--| 
E|--------------|---------------|---------------|-------------------------| 

e|------------|-----------------------|------------------5--8--| 
B|------------|-----------------5--8--|--8br----5---8b---------| 
G|--5----7----|--7br---5---7b---------|------------------------| 
D|------------|-----------------------|------------------------| 
A|------------|-----------------------|------------------------| 
E|------------|-----------------------|------------------------| 

e|--7--5------------------|-----------| 
B|--------8--5------------|----5/9----| 
G|--------------7--5--4---|-----------| 
D|------------------------|-----------| 
A|------------------------|-----------| 
E|------------------------|-----------| 

2nd Chorus 

e|---------------------|-------------------| 
B|---------------------|-------------------| 
G|--9---7---9\---9--7--|--9---7-------12---| 
D|--9---7---9\---9--7--|--9---7---9---12---| 
A|---------------------|----------9--------| 
E|---------------------|-------------------| 

e|---------------------|------------------| 
B|---------------------|------------------| 
G|--9---7---9\---9--7--|--9---12---9---7--| 
D|--9---7---9\---9--7--|--9---12---9---7--| 
A|---------------------|------------------| 
E|---------------------|------------------| 

e|------------------|-----------------------|-------------------------| 
B|------------------|-----------------------|-------------------------| 
G|--9---7---9\---7--|--9---7-------12---2b--|--2pbr--0----------------| 
D|--9---7---9\---7--|--9---7---9---12-------|-----------2--0----------| 
A|------------------|----------9------------|-----------------3--0----| 
E|------------------|-----------------------|-------------------------| 

e|-----------|-----3-----| 
B|-----------|-----3-----| 
G|-----2-----|-----0-----| 
D|-----2-----|-----0-----| 
A|-----0-----|-----2-----| 
E|-----------|-----3-----| 

3rd Verse 

e|----------------------|--------------------|--------------------2--|-------| 
B|----------------------|--------------------|--------------------3--|-------| 
G|--0--2--0--2---0---2--|--4/5--4/5---2---2--|--5\4--5\4--5\4--0--2--|---0---| 
D|--0--2--0--2---0---2--|--4/5--4/5---2---2--|--5\4--5\4--5\4--0--0--|---0---| 
A|----------------------|--------------------|-----------------------|-------| 
E|----------------------|--------------------|-----------------------|-------| 

e|----------------------|--------------------|--------------------2--|---------| 
B|----------------------|--------------------|--------------------3--|---------| 
G|--0--2--0--2---0---2--|--4/5--4/5---2---2--|--5\4--5\4--5\4--0--2--|-------0-| 
D|--0--2--0--2---0---2--|--4/5--4/5---2---2--|--5\4--5\4--5\4--0--0--|-------0--| 
A|----------------------|--------------------|-----------------------|--2------| 
E|----------------------|--------------------|-----------------------|--0------| 

e|----------------------|--------------------|--------------------2--|-------| 
B|----------------------|--------------------|--------------------3--|-------| 
G|--0--2--0--2---0---2--|--4/5--4/5---2---2--|--5\4--5\4--5\4--0--2--|---0---| 
D|--0--2--0--2---0---2--|--4/5--4/5---2---2--|--5\4--5\4--5\4--0--0--|---0---| 
A|----------------------|--------------------|-----------------------|-------| 
E|----------------------|--------------------|-----------------------|-------| 

e|----------------------|-----------------3--|----2----3--|----2----3--| 
B|----------------------|-----------------3--|----3----3--|----3----3--| 
G|--0--2--0--2---0---2--|--4/5--4/5---2---0--|----2----0--|----2----3--| 
D|--0--2--0--2---0---2--|--4/5--4/5---2---0--|----0----0--|----0----0--| 
A|----------------------|-----------------2--|---------2--|---------2--| 
E|----------------------|-----------------3--|---------3--|---------3--| 

e|-----2-----| 
B|-----3-----| 
G|-----2-----| 
D|-----0-----| 
A|-----------| 
E|-----------| 

Outro 

e|-----5-----|------------------3--|--2-------3---|--2------10b--| 
B|-----5-----|------------------3--|--3-------3---|--3-----------| 
G|-----2-----|---------5\4\2----0--|--2-------0---|--2-----------| 
D|-----2-----|---------5\4\2----0--|--0-------0---|--0-----------| 
A|-----------|--3--3------------2--|----------2---|--------------| 
E|-----------|------------------3--|----------3---|--------------| 

e|-------------------------| 
B|--8--7--------------10---| 
G|--------9--7--5----------| 
D|-----------------7-------| 
A|-------------------------| 
E|-------------------------| 

 
		  

See also:

tabs Guns N' Roses - Don't Cry tabs Aerosmith - Dream On tabs Guns N' Roses - Sweet Child o' mine tabs Guns N' Roses - Welcome to The Jungle tabs Rage Against The Machine - Killing In The Name (ver. 2) tabs The Doors - People Are Strange
e-chords

Other versions:

tabs Blackfoot - Stranger On The Road
auto scroll beats size up size down change color hide chords drawings
tab show chords e-chords YouTube Clip e-chords hide all tabs e-chords go to top tab

share with facebook