Blackfoot

Dancin Man

Blackfoot

tabs nolevel nolevel

by  ABELAMIN

save to print version add songbook text version e-mail correct tuner
chordsukulelecavacokeyboardtabbassdrumsharmonicaflute Guitar Pro
close

there isn't a video lesson for this song

chords

Dancin Man

	  		

Guitar I (over driven) 

Intro 
e|-----------------------|---------------------------|-----------------------| 
B|-----------------------|---------------------------|-----------------------| 
G|--2---2---5---2--------|---------------------------|--2---2---5---2--------| 
D|--2---2---5---2--------|--------7--5~~~~-----------|--2---2---5---2--------| 
A|--0---0-------0---3/7--|--7--5-----------5p3p0-----|--0---0-------0---3/7--| 
E|-----------------------|------------------------3--|-----------------------| 

e|----------2---2-------|-----------------------|---------------------------| 
B|----------3---3-------|-----------------------|---------------------------| 
G|----------2---2-------|--2---2---5---2--------|---------------------------| 
D|--7---5---0---0-------|--2---2---5---2--------|--------7--5~~~~-----------| 
A|-----------------3bd--|--0---0-------0---3/7--|--7--5-----------5p3p0-----| 
E|----------------------|-----------------------|------------------------3--| 

e|-----------------------|---------------3--------------| 
B|-----------------------|---------------3--------------| 
G|--2---2---5---2--------|---------------0--------------| 
D|--2---2---5---2--------|---7----5------0--------------| 
A|--0---0-------0---3/7--|---------------2-------3bd----| 
E|-----------------------|---------------3--------------| 

1st Verse 

   L.R. 
e|---------------------|--2--2--2--2--3--3--3-------| 
B|---------------------|--3--3--3--3--3--3--3-------| 
G|--2------------2--2--|--2--2--2--2--0--0--0-------| 
D|--2----4p2-----2--2--|--0--0--0--0--0--0--0-------| 
A|--0---------3--0--0--|--------------2--2--2--3bd--| 
E|---------------------|--------------3--3--3-------| 

   L.R. 
e|--------------------------------------|-------0----2----2---------| 
B|--------------------------------------|-------0----3----3---------| 
G|--2-----------------------------------|-------1----2----2---------| 
D|--2--4p2-----2-------2--4--2----------|--2----2----0----0---------| 
A|--0-------3-----3p4-----------3bd--0--|--2----2--------------3bd--| 
E|--------------------------------------|--0----0-------------------| 

   L.R. 
e|---------------------|--2--2--2--2--3--3--3-------| 
B|---------------------|--3--3--3--3--3--3--3-------| 
G|--2------------2--2--|--2--2--2--2--0--0--0-------| 
D|--2----4p2-----2--2--|--0--0--0--0--0--0--0-------| 
A|--0---------3--0--0--|--------------2--2--2--3bd--| 
E|---------------------|--------------3--3--3-------| 

   L.R. 
e|--------------------------------------|-------0----2----2---------| 
B|--------------------------------------|-------0----3----3---------| 
G|--2-----------------------------------|-------1----2----2---------| 
D|--2--4p2-----2-------2--4--2----------|--2----2----0----0---------| 
A|--0-------3-----3p4-----------3bd--0--|--2----2--------------3bd--| 
E|--------------------------------------|--0----0-------------------| 

Intro reprise 
e|-----------------------|---------------------------|-----------------------| 
B|-----------------------|---------------------------|-----------------------| 
G|--2---2---5---2--------|---------------------------|--2---2---5---2--------| 
D|--2---2---5---2--------|--------7--5~~~~-----------|--2---2---5---2--------| 
A|--0---0-------0---3/7--|--7--5-----------5p3p0-----|--0---0-------0---3/7--| 
E|-----------------------|------------------------3--|-----------------------| 

e|----------2---2-------|-----------------------|---------------------------| 
B|----------3---3-------|-----------------------|---------------------------| 
G|----------2---2-------|--2---2---5---2--------|---------------------------| 
D|--7---5---0---0-------|--2---2---5---2--------|--------7--5~~~~-----------| 
A|-----------------3bd--|--0---0-------0---3/7--|--7--5-----------5p3p0-----| 
E|----------------------|-----------------------|------------------------3--| 

e|-----------------------|---------------3--------------| 
B|-----------------------|---------------3--------------| 
G|--2---2---5---2--------|---------------0--------------| 
D|--2---2---5---2--------|---7----5------0--------------| 
A|--0---0-------0---3/7--|---------------2-------3bd----| 
E|-----------------------|---------------3--------------| 

2nd Verse 

   L.R. 
e|---------------------|--2--2--2--2--3--3--3-------| 
B|---------------------|--3--3--3--3--3--3--3-------| 
G|--2------------2--2--|--2--2--2--2--0--0--0-------| 
D|--2----4p2-----2--2--|--0--0--0--0--0--0--0-------| 
A|--0---------3--0--0--|--------------2--2--2--3bd--| 
E|---------------------|--------------3--3--3-------| 

   L.R. 
e|--------------------------------------|-------0----2----2---------| 
B|--------------------------------------|-------0----3----3---------| 
G|--2-----------------------------------|-------1----2----2---------| 
D|--2--4p2-----2-------2--4--2----------|--2----2----0----0---------| 
A|--0-------3-----3p4-----------3bd--0--|--2----2--------------3bd--| 
E|--------------------------------------|--0----0-------------------| 

   L.R. 
e|---------------------|--2--2--2--2--3--3--3-------| 
B|---------------------|--3--3--3--3--3--3--3-------| 
G|--2------------2--2--|--2--2--2--2--0--0--0-------| 
D|--2----4p2-----2--2--|--0--0--0--0--0--0--0-------| 
A|--0---------3--0--0--|--------------2--2--2--3bd--| 
E|---------------------|--------------3--3--3-------| 

   L.R. 
e|--------------------------------------|-------0----2----2---------| 
B|--------------------------------------|-------0----3----3---------| 
G|--2-----------------------------------|-------1----2----2---------| 
D|--2--4p2-----2-------2--4--2----------|--2----2----0----0---------| 
A|--0-------3-----3p4-----------3bd--0--|--2----2--------------3bd--| 
E|--------------------------------------|--0----0-------------------| 

1st Chorus 
e|--3----2--------|-------|--3----2--------|-------|--3----2--------|-------| 
B|--3----3--------|-------|--3----3--------|-------|--3----3--------|-------| 
G|--0----2--------|---2---|--0----2--------|---2---|--0----2--------|---2---| 
D|--0----0--------|---2---|--0----0--------|---2---|--0----0--------|---2---| 
A|--3-------------|---0---|--3-------------|---0---|--3-------------|---0---| 
E|--3-------------|-------|--3-------------|-------|--3-------------|-------| 

e|--3----2--------|----0-----| 
B|--3----3--------|----0-----| 
G|--0----2--------|----1-----| 
D|--0----0--------|----2-----| 
A|--3-------------|----2-----| 
E|--3-------------|----0-----| 

Intro reprise 
e|-----------------------|---------------------------|-----------------------| 
B|-----------------------|---------------------------|-----------------------| 
G|--2---2---5---2--------|---------------------------|--2---2---5---2--------| 
D|--2---2---5---2--------|--------7--5~~~~-----------|--2---2---5---2--------| 
A|--0---0-------0---3/7--|--7--5-----------5p3p0-----|--0---0-------0---3/7--| 
E|-----------------------|------------------------3--|-----------------------| 

e|----------2---2-------|-----------------------|---------------------------| 
B|----------3---3-------|-----------------------|---------------------------| 
G|----------2---2-------|--2---2---5---2--------|---------------------------| 
D|--7---5---0---0-------|--2---2---5---2--------|--------7--5~~~~-----------| 
A|-----------------3bd--|--0---0-------0---3/7--|--7--5-----------5p3p0-----| 
E|----------------------|-----------------------|------------------------3--| 

e|-----------------------|---------------3--------------| 
B|-----------------------|---------------3--------------| 
G|--2---2---5---2--------|---------------0--------------| 
D|--2---2---5---2--------|---7----5------0--------------| 
A|--0---0-------0---3/7--|---------------2-------3bd----| 
E|-----------------------|---------------3--------------| 

Bridge into solo  
e|------------------------------------5-------------------| 
B|---------------------------------------8--5-------------| 
G|--2--2--0--0---7bhrbhrbhrb--7b--7b-----------7br--5-----| 
D|-----------------------------------------------------7--| 
A|--------------------------------------------------------| 
E|--------------------------------------------------------| 

Solo 
e|---------------------------8----------------------------| 
B|-------8--10--8-----10--------10--8-----10--8-----------| 
G|--5/9------------9------9------------9---------9\7\5qb--| 
D|--------------------------------------------------------| 
A|--------------------------------------------------------| 
E|--------------------------------------------------------| 

e|------------------------------------------| 
B|--------------------------------------10--| 
G|--------7p+-------5p+-------5p+--6/9------| 
D|--7--7-------7p+-------7p+----------------| 
A|------------------------------------------| 
E|------------------------------------------| 

e|---------------------------------------15-------15-------| 
B|--------13--15br--13--15------13--15b------15b------15b--| 
G|--7/14--------------------14-----------------------------| 
D|---------------------------------------------------------| 
A|---------------------------------------------------------| 
E|---------------------------------------------------------| 

e|--15---15---15---15-------------------------| 
B|--15b--15b--15b--15b--15br--13------13------| 
G|--------------------------------14------14--| 
D|--------------------------------------------| 
A|--------------------------------------------| 
E|--------------------------------------------| 

e|--------------15b--15pbr--15--12-----------------------| 
B|--15--13--------------------------15br--13--15--13/17--| 
G|----------14-------------------------------------------| 
D|-------------------------------------------------------| 
A|-------------------------------------------------------| 
E|-------------------------------------------------------| 

e|--17------20b--20pbr--17------17------------| 
B|------17------------------20------20br--17--| 
G|--------------------------------------------| 
D|--------------------------------------------| 
A|--------------------------------------------| 
E|--------------------------------------------| 

e|--17------17------17------17----------------20b--20\--| 
B|------20------20------20------20--20br--17------------| 
G|------------------------------------------------------| 
D|------------------------------------------------------| 
A|------------------------------------------------------| 
E|------------------------------------------------------| 

e|--3-----------2--------|--5-------------------------|---------------------| 
B|--3-----------3--------|-----8--5-------------------|-------10------------| 
G|--0-----------2----7b--|-----------7br--5--7--5-----|--4----10\7---10/14--| 
D|--0-----------0--------|-------------------------7--|--5----10\7----------| 
A|--2----3bd-------------|----------------------------|--5-------5----------| 
E|--3--------------------|----------------------------|--3------------------| 

e|---------------------------------------15-------------15b--| 
B|--13--15b--15pbr--13--15------13--15b------15pbr--13-------| 
G|--------------------------14-------------------------------| 
D|-----------------------------------------------------------| 
A|-----------------------------------------------------------| 
E|-----------------------------------------------------------| 

e|--3-----------2--------|-------------------------------------| 
B|--3-----------3--------|-------------------------------------| 
G|--0-----------2----7b--|--7pbrp+--5--------------------------| 
D|--0-----------0--------|-------------7--5-----------------7--| 
A|--2----3bd-------------|-------------------7--6--5-----------| 
E|--3--------------------|----------------------------8--5-----| 

                             L.R. 
e|--3-----------2----------|--12------15b--15pbr--12-------12-------| 
B|--3-----------3----------|------12------------------15-------15b--| 
G|--0-----------2----7/13--|----------------------------------------| 
D|--0-----------0----------|----------------------------------------| 
A|--2----3bd---------------|----------------------------------------| 
E|--3----------------------|----------------------------------------| 

3rd Verse 

   L.R. 
e|---------------------|--2--2--2--2--3--3--3-------| 
B|---------------------|--3--3--3--3--3--3--3-------| 
G|--2------------2--2--|--2--2--2--2--0--0--0-------| 
D|--2----4p2-----2--2--|--0--0--0--0--0--0--0-------| 
A|--0---------3--0--0--|--------------2--2--2--3bd--| 
E|---------------------|--------------3--3--3-------| 

  L.R. 
e|--------------------------------------|-------0----2----2---------| 
B|--------------------------------------|-------0----3----3---------| 
G|--2-----------------------------------|-------1----2----2---------| 
D|--2--4p2-----2-------2--4--2----------|--2----2----0----0---------| 
A|--0-------3-----3p4-----------3bd--0--|--2----2--------------3bd--| 
E|--------------------------------------|--0----0-------------------| 

   L.R. 
e|---------------------|--2--2--2--2--3--3--3-------| 
B|---------------------|--3--3--3--3--3--3--3-------| 
G|--2------------2--2--|--2--2--2--2--0--0--0-------| 
D|--2----4p2-----2--2--|--0--0--0--0--0--0--0-------| 
A|--0---------3--0--0--|--------------2--2--2--3bd--| 
E|---------------------|--------------3--3--3-------| 

   L.R. 
e|--------------------------------------|-------0----2----2---------| 
B|--------------------------------------|-------0----3----3---------| 
G|--2-----------------------------------|-------1----2----2---------| 
D|--2--4p2-----2-------2--4--2----------|--2----2----0----0---------| 
A|--0-------3-----3p4-----------3bd--0--|--2----2--------------3bd--| 
E|--------------------------------------|--0----0-------------------| 

2nd Chorus 

e|--3----2--------|-------|--3----2--------|-------|--3----2--------|-------| 
B|--3----3--------|-------|--3----3--------|-------|--3----3--------|-------| 
G|--0----2--------|---2---|--0----2--------|---2---|--0----2--------|---2---| 
D|--0----0--------|---2---|--0----0--------|---2---|--0----0--------|---2---| 
A|--3-------------|---0---|--3-------------|---0---|--3-------------|---0---| 
E|--3-------------|-------|--3-------------|-------|--3-------------|-------| 

e|--3----2--------|----0-----| 
B|--3----3--------|----0-----| 
G|--0----2--------|----1-----| 
D|--0----0--------|----2-----| 
A|--3-------------|----2-----| 
E|--3-------------|----0-----| 

Outro 
e|--3-----------2---------|-------|--3-----------2---------| 
B|--3-----------3---------|-------|--3-----------3---------| 
G|--0-----------2---------|---2---|--0-----------2---------| 
D|--0-----------0---------|---2---|--0-----------0---------| 
A|--2----3bd---------3bd--|---0---|--2----3bd---------3bd--| 
E|--3---------------------|-------|--3---------------------| 

e|-----------------------------|--3-----------2---------| 
B|-----------------------------|--3-----------3---------| 
G|--2-----------------------2--|--0-----------2---------| 
D|--2-----------------------2--|--0-----------0---------| 
A|--0-------0-------0-------0--|--2----3bd---------3bd--| 
E|-----3bd-----3bd-----3bd-----|--3---------------------| 

   L.R. 
e|-----------------------------|--------------------------------------| 
B|-----------------------------|--------------------------------------| 
G|--2---------------5--2--0h2--|--0--0--0--0--0h5----7--7--7--7--7h9--| 
D|--2----------2h4--5--2--0h2--|--0--0--0--0--0h5----7--7--7--7--7h9--| 
A|--0--0--3h4------------------|--------------------------------------| 
E|-----------------------------|--------------------------------------| 

e|--------------------------------|--------------------------------------| 
B|-----3--2--3--2--3--2--3--2--2--|--------------------------------------| 
G|--2--2--2--2--2--2--2--2--2--2--|--0--0--0--0--0h5----7--7--7--7--7h9--| 
D|--2-----------------------------|--0--0--0--0--0h5----7--7--7--7--7h9--| 
A|--0-----------------------------|--------------------------------------| 
E|--------------------------------|--------------------------------------| 

e|----------------------------5--| 
B|----------------------------5--| 
G|-----------------------2----2--| 
D|-----------2--4--2-----2----2--| 
A|--0--3--4-----------4--0----0--| 
E|-------------------------------| 

Guitar II (Over driven) 

Intro 
e|-----------------------|---------------------------|-----------------------| 
B|-----------------------|---------------------------|-----------------------| 
G|--2---2---5---2--------|---------------------------|--2---2---5---2--------| 
D|--2---2---5---2--------|--------7--5~~~~-----------|--2---2---5---2--------| 
A|--0---0-------0---3/7--|--7--5-----------5p3p0-----|--0---0-------0---3/7--| 
E|-----------------------|------------------------3--|-----------------------| 

e|----------2---2-------|-----------------------|---------------------------| 
B|----------3---3-------|-----------------------|---------------------------| 
G|----------2---2-------|--2---2---5---2--------|---------------------------| 
D|--7---5---0---0-------|--2---2---5---2--------|--------7--5~~~~-----------| 
A|-----------------3bd--|--0---0-------0---3/7--|--7--5-----------5p3p0-----| 
E|----------------------|-----------------------|------------------------3--| 

e|-----------------------|---------------3--------------| 
B|-----------------------|---------------3--------------| 
G|--2---2---5---2--------|---------------0--------------| 
D|--2---2---5---2--------|---7----5------0--------------| 
A|--0---0-------0---3/7--|---------------2-------3bd----| 
E|-----------------------|---------------3--------------| 

1st Verse 

   L.R. 
e|---------------5--5--|--2--2--2--2--3----3-------| 
B|---------------5--5--|--3--3--3--3--3----3-------| 
G|--2------------2--2--|--2--2--2--2--0----0-------| 
D|--2----4p2-----2--2--|--0--0--0--0--0----0-------| 
A|--0---------3--------|--------------2-------3bd--| 
E|---------------------|--------------3------------| 

  L.R. 
e|--------------------------------------|-------0----2----2---------| 
B|--------------------------------------|-------0----3----3---------| 
G|--2-----------------------------------|-------1----2----2---------| 
D|--2--4p2-----2-------2--4--2----------|--2----2----0----0---------| 
A|--0-------3-----3p4-----------3bd--0--|--2----2--------------3bd--| 
E|--------------------------------------|--0----0-------------------| 

  L.R. 
e|---------------5--5--|--2--2--2--2--3----3-------| 
B|---------------5--5--|--3--3--3--3--3----3-------| 
G|--2------------2--2--|--2--2--2--2--0----0-------| 
D|--2----4p2-----2--2--|--0--0--0--0--0----0-------| 
A|--0---------3--------|--------------2-------3bd--| 
E|---------------------|--------------3------------| 

   L.R. 
e|--------------------------------------|-------0----2----2---------| 
B|--------------------------------------|-------0----3----3---------| 
G|--2-----------------------------------|-------1----2----2---------| 
D|--2--4p2-----2-------2--4--2----------|--2----2----0----0---------| 
A|--0-------3-----3p4-----------3bd--0--|--2----2--------------3bd--| 
E|--------------------------------------|--0----0-------------------| 

Intro reprise 
e|-----------------------|---------------------------|-----------------------| 
B|-----------------------|---------------------------|-----------------------| 
G|--2---2---5---2--------|---------------------------|--2---2---5---2--------| 
D|--2---2---5---2--------|--------7--5~~~~-----------|--2---2---5---2--------| 
A|--0---0-------0---3/7--|--7--5-----------5p3p0-----|--0---0-------0---3/7--| 
E|-----------------------|------------------------3--|-----------------------| 

e|----------2---2-------|-----------------------|---------------------------| 
B|----------3---3-------|-----------------------|---------------------------| 
G|----------2---2-------|--2---2---5---2--------|---------------------------| 
D|--7---5---0---0-------|--2---2---5---2--------|--------7--5~~~~-----------| 
A|-----------------3bd--|--0---0-------0---3/7--|--7--5-----------5p3p0-----| 
E|----------------------|-----------------------|------------------------3--| 

e|-----------------------|---------------3--------------| 
B|-----------------------|---------------3--------------| 
G|--2---2---5---2--------|---------------0--------------| 
D|--2---2---5---2--------|---7----5------0--------------| 
A|--0---0-------0---3/7--|---------------2-------3bd----| 
E|-----------------------|---------------3--------------| 

2nd Verse 

  L.R. 
e|---------------5--5--|--2--2--2--2--3----3-------| 
B|---------------5--5--|--3--3--3--3--3----3-------| 
G|--2------------2--2--|--2--2--2--2--0----0-------| 
D|--2----4p2-----2--2--|--0--0--0--0--0----0-------| 
A|--0---------3--------|--------------2-------3bd--| 
E|---------------------|--------------3------------| 

   L.R. 
e|--------------------------------------|-------0----2----2---------| 
B|--------------------------------------|-------0----3----3---------| 
G|--2-----------------------------------|-------1----2----2---------| 
D|--2--4p2-----2-------2--4--2----------|--2----2----0----0---------| 
A|--0-------3-----3p4-----------3bd--0--|--2----2--------------3bd--| 
E|--------------------------------------|--0----0-------------------| 

   L.R. 
e|---------------5--5--|--2--2--2--2--3----3-------| 
B|---------------5--5--|--3--3--3--3--3----3-------| 
G|--2------------2--2--|--2--2--2--2--0----0-------| 
D|--2----4p2-----2--2--|--0--0--0--0--0----0-------| 
A|--0---------3--------|--------------2-------3bd--| 
E|---------------------|--------------3------------| 

   L.R. 
e|--------------------------------------|-------0----2----2---------| 
B|--------------------------------------|-------0----3----3---------| 
G|--2-----------------------------------|-------1----2----2---------| 
D|--2--4p2-----2-------2--4--2----------|--2----2----0----0---------| 
A|--0-------3-----3p4-----------3bd--0--|--2----2--------------3bd--| 
E|--------------------------------------|--0----0-------------------| 

1st Chorus 
e|--3----2---------|----------------------|--3----2---------|-------5----5--| 
B|--3----3---------|----------------------|--3----3---------|-------5----5--| 
G|--0----2---------|--2-------------------|--0----2---------|--2----2----2--| 
D|--0----0---------|--2--5--4--2--4p2-----|--0----0---------|--2------------| 
A|--2---------3bd--|--0----------------3--|--2---------3bd--|--0------------| 
E|--3--------------|----------------------|--3--------------|---------------| 

e|--3----2---------|--------------|--3----2--------|----------| 
B|--3----3---------|--------------|--3----3--------|----------| 
G|--0----2---------|--2-----------|--0----2-----3/-|----9-----| 
D|--0----0---------|--2----4p2----|--0----0--------|----9-----| 
A|--2---------3bd--|--0--------3--|--2-------------|----7-----| 
E|--3--------------|--------------|--3-------------|----------| 

Intro reprise 
e|-----------------------|---------------------------|-----------------------| 
B|-----------------------|---------------------------|-----------------------| 
G|--2---2---5---2--------|---------------------------|--2---2---5---2--------| 
D|--2---2---5---2--------|--------7--5~~~~-----------|--2---2---5---2--------| 
A|--0---0-------0---3/7--|--7--5-----------5p3p0-----|--0---0-------0---3/7--| 
E|-----------------------|------------------------3--|-----------------------| 

e|----------2---2-------|-----------------------|---------------------------| 
B|----------3---3-------|-----------------------|---------------------------| 
G|----------2---2-------|--2---2---5---2--------|---------------------------| 
D|--7---5---0---0-------|--2---2---5---2--------|--------7--5~~~~-----------| 
A|-----------------3bd--|--0---0-------0---3/7--|--7--5-----------5p3p0-----| 
E|----------------------|-----------------------|------------------------3--| 

e|-----------------------|---------------3--------------| 
B|-----------------------|---------------3--------------| 
G|--2---2---5---2--------|---------------0--------------| 
D|--2---2---5---2--------|---7----5------0--------------| 
A|--0---0-------0---3/7--|---------------2-------3bd----| 
E|-----------------------|---------------3--------------| 
  
Bridge to Solo 
e|--------------------0--------| 
B|--------------------0--------| 
G|--2--2----0--0------1--------| 
D|--------------------2--------| 
A|--------------------2--------| 
E|--------------------0--------| 

Solo 
e|-------------5----5--|--2--2--2----3--3----2--2--|-------------5----5--| 
B|-------------5----5--|--3--3--3----3--3----3--3--|-------------5----5--| 
G|--2----------2----2--|--2--2--2----0--0----2--2--|--2----------2----2--| 
D|--2--4p2-----2-------|--0--0--0------------------|--2--4p2-----2-------| 
A|--0-------3--0-------|---------------------------|--0-------3--0-------| 
E|---------------------|---------------------------|---------------------| 

e|--2---------------|-------------5----5--|--2--2--2----3--3----2--2--| 
B|--3---------------|-------------5----5--|--3--3--3----3--3----3--3--| 
G|--2---------------|--2----------2----2--|--2--2--2----0--0----2--2--| 
D|--0---------------|--2--4p2-----2-------|--0--0--0------------------| 
A|-----------0h3bd--|--0-------3--0-------|---------------------------| 
E|-------3----------|---------------------|---------------------------| 

e|-------------5----5--|--------------------------------------| 
B|-------------5----5--|--------------------------------------| 
G|--2----------2----2--|--7--7--7--7--7/9----5--5--5--5--5/7--| 
D|--2--4p2-----2-------|--7--7--7--7--7/9----5--5--5--5--5/7--| 
A|--0-------3--0-------|--5--5--5--5--5/7----3--3--3--3--3/5--| 
E|---------------------|--------------------------------------| 

e|-------------|---------|--------------|---------------------------| 
B|--8------7---|---------|--8------10---|---------------------------| 
G|--10b----9b--|----2----|--10b----12b--|--2--2--0h2----0h2----0h2--| 
D|-------------|----2----|--------------|--2--2--0h2----0h2----0h2--| 
A|-------------|----0----|--------------|--0--0--0h2----0h2----0h2--| 
E|-------------|---------|--------------|---------------------------| 

e|-------------|---------|-------------|------------| 
B|--8------7---|---------|--8------7---|------------| 
G|--10b----9b--|----2----|--10b----9b--|--9--x--9---| 
D|-------------|----2----|-------------|--9--x--9---| 
A|-------------|----0----|-------------|--7--x--7---| 
E|-------------|---------|-------------|------------| 

3rd verse 

   L.R. 
e|----------------------5--|--2--2--2--2--3----3-------| 
B|----------------------5--|--3--3--3--3--3----3-------| 
G|--2-------------------2--|--2--2--2--2--0----0-------| 
D|--2----4p2------------2--|--0--0--0--0--0----0-------| 
A|--0---------3------------|--------------2-------3bd--| 
E|---------------3bd-------|--------------3------------| 

   L.R. 
e|--------------------------------------|-------0-------------------| 
B|--------------------------------------|-------0-------------------| 
G|--2-----------------------------------|-------1----9\7----7----5--| 
D|--2--4p2-----2-------2--4--2----------|--2----2----9\7----7----5--| 
A|--0-------3-----3p4-----------3bd--0--|--2----2----7\5----5----3--| 
E|--------------------------------------|--0----0-------------------| 

   L.R. 
e|---------------5--5--|--2--2--2--2--3----3-------| 
B|---------------5--5--|--3--3--3--3--3----3-------| 
G|--2------------2--2--|--2--2--2--2--0----0-------| 
D|--2----4p2-----2--2--|--0--0--0--0--0----0-------| 
A|--0---------3--------|--------------2-------3bd--| 
E|---------------------|--------------3------------| 

   L.R. 
e|--------------------------------------|-------0----2----2---------| 
B|--------------------------------------|-------0----3----3---------| 
G|--2-----------------------------------|-------1----2----2---------| 
D|--2--4p2-----2-------2--4--2----------|--2----2----0----0---------| 
A|--0-------3-----3p4-----------3bd--0--|--2----2--------------3bd--| 
E|--------------------------------------|--0----0-------------------| 

2nd Chorus 
e|--3---2--------|------5--5--5--|--3---2--------|---------------------------| 
B|--3---3--------|------5--5--5--|--3---3--------|---------------------------| 
G|--0---2--------|--2---2--2--2--|--0---2--------|--2-------------5--5--4--2-| 
D|--0---0--------|--2---2--2--2--|--0---0--------|--2----------2--5--5--4--2-| 
A|--2-------3bd--|--0------------|--2-------3bd--|--0--0--3h4----------------| 
E|--3------------|---------------|--3------------|---------------------------| 
					 
e|--3----2---------|--------------|--3----------2---------|--0-------------| 
B|--3----3---------|--------------|--3----------3---------|--0-------------| 
G|--0----2---------|--2-----2--2--|--0----------2---------|--1-------------| 
D|--0----0---------|--2-----2--2--|--0----------0---------|--2----2--2--4--| 
A|--2---------3bd--|--0-----0--0--|--2----3bd--------3bd--|--2----2--2--4--| 
E|--3--------------|--------------|--3--------------------|--0----0--0--2--| 

Outro 
e|--------------2---------|------------------|--3-----------2---------| 
B|--------------3---------|------------------|--3-----------3---------| 
G|--------------2---------|--2------------2--|--0-----------2---------| 
D|--5-----------0---------|--2--4p2-------2--|--0-----------0---------| 
A|--5----3bd---------3bd--|--0-------3p0--0--|--2----3bd---------3bd--| 
E|--3---------------------|------------------|--3---------------------| 

e|-------------------------------|--3-----------2---------| 
B|-------------------------------|--3-----------3---------| 
G|--2----------------------------|--0-----------2---------| 
D|--2----------------------------|--0-----------0---------| 
A|--0---------0-------0-------0--|--2----3bd---------3bd--| 
E|-------3bd-----3bd-----3bd-----|--3---------------------| 

e|-------------------------------|------------------------------------------| 
B|-------------------------------|------------------------------------------| 
G|--2-----------------5--2--0h2--|------------------5----7--7--7--7--7---9--| 
D|--2------------2h4--5--2--0h2--|--5--5--5--5--5---5----7--7--7--7--7---9--| 
A|--0----0--3h4------------------|--5--5--5--5--5---3----5--5--5--5--5---7--| 
E|-------------------------------|--3--3--3--3--3---------------------------| 

e|----------------------------------| 
B|----------------------------------| 
G|-------7--6--7--6--7--6--7--6--6--| 
D|--7----7--7--7--7--7--7--7--7--7--| 
A|--7-------------------------------| 
E|--5-------------------------------| 

e|------------------------------------------|--------------------------5--| 
B|------------------------------------------|--------------------------5--| 
G|------------------5----7--7--7--7--7---9--|-----------------------2--2--| 
D|--5--5--5--5--5---5----7--7--7--7--7---9--|-----------2--4--2-----2--2--| 
A|--5--5--5--5--5---3----5--5--5--5--5---7--|--0--3--4-----------4--0--0--| 
E|--3--3--3--3--3---------------------------|-----------------------------| 

 
		  

See also:

tabs Guns N' Roses - Don't Cry tabs Aerosmith - Dream On tabs Guns N' Roses - Sweet Child o' mine tabs Guns N' Roses - Welcome to The Jungle tabs Rage Against The Machine - Killing In The Name (ver. 2) tabs The Doors - People Are Strange
e-chords

Other versions:

tabs Blackfoot - Dancin Man
auto scroll beats size up size down change color hide chords drawings
tab show chords e-chords YouTube Clip e-chords hide all tabs e-chords go to top tab

share with facebook