Black Veil Brides

In The End Tab

Black Veil Brides

Difficulty: BeginnerBeginner

by IronPower4Ever

tuner correct add songbook print version text version save to e-mail
chordsukuleleukulelecavacokeyboardtabbassdrumsharmonicsflute Guitar Pro
close

there isn't a video lesson for this song

request
chords

In The End

  		
Intro: 

|--------/9-12------10-9-10h12h14-------------| 
|-/10-12--------/10---------------------------| 
|---------------------------------------------| 
|---------------------------------------------| 
|---------------------------------------------| 
|---------------------------------------------| 

|----------------------------7-9-7-9-10-9-7--------------------------| 
|------------------9-10-9-10----------------10-9---------9-10-9----9-| 
|----------11-9-11-------------------------------11-9-11--------11---| 
|-4--4--2------------------------------------------------------------| 
|-4--4--2------------------------------------------------------------| 
|-4--4--2------------------------------------------------------------| 
  .  .  . 

|----------------------------7-9-7-9-10-9-7-------------------7-9-10-/14-| 
|------------------9-10-9-10----------------10-9---------9-10------------| 
|----------11-9-11-------------------------------11-9-11-----------------| 
|-4--4--2----------------------------------------------------------------| 
|-4--4--2----------------------------------------------------------------| 
|-4--4--2----------------------------------------------------------------| 
  .  .  . 


1st verse: 

|-----------------------------------------------------------------| 
|-----------------------------------------------------------------| 
|-----------------------------------------------------------------| 
|-----------------------------------------------------------------| 
|-----------------------------------------------------------------| 
|-4-4-4-4-4-4-4-4-7-7-7-7-7-7-7-7-6-6-6-6-6-6-6-6-5-5-5-5-5-5-5-5-| 
  . . . . . . . . . . . . . . . . . . . . . . . . . . . . . . . . 

|---------------------------------------------------------------| 
|---------------------------------------------------------------| 
|---------------------------------------------------------------| 
|---------------------------------------------------------------| 
|---------------------------------------------------------------| 
|-4-4-4-4-4-4-4-4-7-7-7-7-7-7-7-7-6-6-6-6-6-6-6-6-5-5-5-5-5-5-5-| 
  . . . . . . . . . . . . . . . . . . . . . . . . . . . . . 

|-----------------------------------------------------------------| 
|-----------------------------------------------------------------| 
|-----------------------------------------------------------------| 
|---------------------------------------------------------4-------| 
|-----4-----5---4-----4-----5---4-----4-----5---4-----5-7---7-5---| 
|-4-4---4-4---4---7-7---7-7---7---6-6---6-6---6---5-5-------------| 
  . .   . .   .   . .   . .   .   . .   . .   .   . . 


|--------------------------------------------------------------| 
|--------------------------------------------------------------| 
|--------------------------------------------------------------| 
|--------------------------------------------------------------| 
|-----4-----5---4-----4-----5---4-----4-----5---4-7--5-4-------| 
|-4-4---4-4---4---7-7---7-7---7---6-6---6-6---6----------7-6~--| 


Chorus: 

|------------------------------------------------------------------| 
|------------------------------------------------------------------| 
|------------------------------------------------------------------| 
|-4-4-4-4-4-4-4-4-7-7-7-7-7-7-7-7-7-7-7-7-7-7-7-7-6-6-6-6-6-6-6-6--| 
|-4-4-4-4-4-4-4-4-5-5-5-5-5-5-5-5-7-7-7-7-7-7-7-7-7-7-7-7-7-7-7-7--| 
|-4-4-4-4-4-4-4-4-----------------7-7-7-7-7-7-7-7-6-6-6-6-6-6-6-6--| x2 

|----------------------------------------------------------| 
|----------------------------------------------------------| 
|----------------------------------------------------------| 
|-6-6-6-6-6-6-6-6-7-7-7-7-7-7-7-7-7-7-7-7-7-7-7-7-6-6-6-6--| 
|-4-4-4-4-4-4-4-4-5-5-5-5-5-5-5-5-7-7-7-7-7-7-7-7-7-7-7-7--| 
|---------------------------------7-7-7-7-7-7-7-7-6-6-6-6--| 

|----------------------------------------------------------| 
|----------------------------------------------------------| 
|----------------------------------------------------------| 
|-4-4-4-4-4-4-4-4-7-7-7-7-7-7-7-7-7-7-7-7-7-7-7-7-6-6-6-6--| 
|-4-4-4-4-4-4-4-4-5-5-5-5-5-5-5-5-7-7-7-7-7-7-7-7-7-7-7-7--| 
|-4-4-4-4-4-4-4-4-----------------7-7-7-7-7-7-7-7-6-6-6-6--| 


Interlude: 

|------------------------------------------| 
|------------------------------------------| 
|------------------------------------------| 
|-4-4-2-4----2~---4-4-2-4---7~--2~---------| 
|-4-4-2-4----2~---4-4-2-4---5~--2~---------| 
|-4-4-2-4----2~---4-4-2-4-------2~---------| 
  . . . .         . . . . 


2nd verse: 

|---------------------------------------------------------------------| 
|---------------------------------------------------------------------| 
|---------------------------------------------------------------------| 
|---------------------------------------------------------------------| 
|---------------------------------------------------------------------| 
|-4-4-4-4-4-4-4-44-7-7-7-7-7-7-7-77-6-6-6-6-6-6-6-66-5-5-5-5-5-5-5-55-| 
  . . . . . . . .. . . . . . . . .. . . . . . . . .. . . . . . . . .. 

|------------------------------------------------------------------| 
|------------------------------------------------------------------| 
|------------------------------------------------------------------| 
|------------------------------------------------------------------| 
|------------------------------------------------------------------| 
|-4-4-4-4-4-4-4-44-7-7-7-7-7-7-7-77-6-6-6-6-6-6-6-66-5-5-5-5-5-5-5-| 
  . . . . . . . .. . . . . . . . .. . . . . . . . .. . . . . . 

|--------------------------------------------------------------| 
|--------------------------------------------------------------| 
|--------------------------------------------------------------| 
|--------------------------------------------------------------| 
|-----4-----5---4-----4-----5---4-----4-----5---4-7--5-4-------| 
|-4-4---4-4---4---7-7---7-7---7---6-6---6-6---6----------7-6~--| x2 


Chorus: 

|------------------------------------------------------------------| 
|------------------------------------------------------------------| 
|------------------------------------------------------------------| 
|-4-4-4-4-4-4-4-4-7-7-7-7-7-7-7-7-7-7-7-7-7-7-7-7-6-6-6-6-6-6-6-6--| 
|-4-4-4-4-4-4-4-4-5-5-5-5-5-5-5-5-7-7-7-7-7-7-7-7-7-7-7-7-7-7-7-7--| 
|-4-4-4-4-4-4-4-4-----------------7-7-7-7-7-7-7-7-6-6-6-6-6-6-6-6--| x2 

|----------------------------------------------------------| 
|----------------------------------------------------------| 
|----------------------------------------------------------| 
|-6-6-6-6-6-6-6-6-7-7-7-7-7-7-7-7-7-7-7-7-7-7-7-7-6-6-6-6--| 
|-4-4-4-4-4-4-4-4-5-5-5-5-5-5-5-5-7-7-7-7-7-7-7-7-7-7-7-7--| 
|---------------------------------7-7-7-7-7-7-7-7-6-6-6-6--| 

|------------------------------------------------------------------| 
|------------------------------------------------------------------| 
|------------------------------------------------------------------| 
|-4-4-4-4-4-4-4-4-7-7-7-7-7-7-7-7-7-7-7-7-7-7-7-7-6-6-6-6-6-6-6-6--| 
|-4-4-4-4-4-4-4-4-5-5-5-5-5-5-5-5-7-7-7-7-7-7-7-7-7-7-7-7-7-7-7-7--| 
|-4-4-4-4-4-4-4-4-----------------7-7-7-7-7-7-7-7-6-6-6-6-6-6-6-6--| 


Solo: 

|----------16b17-16------------------------------------| 
|-14-15-14----------17~--14-15-17-17~------------------| 
|---------------------------------------16-14-13-------| 
|------------------------------------------------14~---| 
|------------------------------------------------------| 
|------------------------------------------------------| 

|----------------------------------------14~-14p12----15b17-15--| 
|-------------------------------14-15-17-----------14-----------| 
|----13-14-16-14-13-14-16-14-13---------------------------------| 
|-14------------------------------------------------------------| 
|---------------------------------------------------------------| 
|---------------------------------------------------------------| 

|-17p12----12-17p12-19p12-17p12----12-17p12----------| 
|-------14----------------------14----------14-------| 
|----------------------------------------------14----| 
|----------------------------------------------------| 
|----------------------------------------------------| 
|----------------------------------------------------| 

|-19p16----16-19p16-21p16-19p16----------------------16h17~--| 
|-------17----------------------17----------------17---------| 
|----------------------------------16----------16------------| 
|-------------------------------------18----18---------------| 
|----------------------------------------19------------------| 
|------------------------------------------------------------| 

I find it easier to play the solo without the sweep, like this: 

|-19p16----16-19p16-21p16-19p16----16-19p16----16-17~--| 
|-------17----------------------17----------17---------| 
|------------------------------------------------------| 
|------------------------------------------------------| 
|------------------------------------------------------| 
|------------------------------------------------------| 


Chorus: 

|------------------------------------------------------------------| 
|------------------------------------------------------------------| 
|------------------------------------------------------------------| 
|-4-4-4-4-4-4-4-4-7-7-7-7-7-7-7-7-7-7-7-7-7-7-7-7-6-6-6-6-6-6-6-6--| 
|-4-4-4-4-4-4-4-4-5-5-5-5-5-5-5-5-7-7-7-7-7-7-7-7-7-7-7-7-7-7-7-7--| 
|-4-4-4-4-4-4-4-4-----------------7-7-7-7-7-7-7-7-6-6-6-6-6-6-6-6--| 

|-------------------------------------------------------------------| 
|-------------------------------------------------------------------| 
|-------------------------------------------------------------------| 
|-6-6-6-6-6-6-6-6-7-7-7-7-7-7-7-7-7-7-7-7-7-7-7-7-6-6-6-6-x-x-x-x---| 
|-4-4-4-4-4-4-4-4-5-5-5-5-5-5-5-5-7-7-7-7-7-7-7-7-7-7-7-7-x-x-x-x---| 
|---------------------------------7-7-7-7-7-7-7-7-6-6-6-6-x-x-x-x---| 

|----------------------------------------------------------| 
|----------------------------------------------------------| 
|----------------------------------------------------------| 
|-4-4-4-4-4-4-4-4-7-7-7-7-7-7-7-7-7-7-7-7-7-7-7-7-6-6-6-6--| 
|-4-4-4-4-4-4-4-4-5-5-5-5-5-5-5-5-7-7-7-7-7-7-7-7-7-7-7-7--| 
|-4-4-4-4-4-4-4-4-----------------7-7-7-7-7-7-7-7-6-6-6-6--| 


Interlude: 

|-t17p12p9--t17p12p9--t17p12p9--t17p12p9--t17p12-t17p12----| 
|----------------------------------------------------------| 
|----------------------------------------------------------| 
|----------------------------------------------------------| 
|----------------------------------------------------------| 
|----------------------------------------------------------| 

|-t17p14p10--t17p14p10--t17p14p10--t17p14p10-t17p14-t17p14--| 
|-----------------------------------------------------------| 
|-----------------------------------------------------------| 
|-----------------------------------------------------------| 
|-----------------------------------------------------------| 
|-----------------------------------------------------------| 

|-t17p12p9--t17p12p9--t17p12p9--t17p12p9--t17p12-t17p12----| 
|----------------------------------------------------------| 
|----------------------------------------------------------| 
|----------------------------------------------------------| 
|----------------------------------------------------------| 
|----------------------------------------------------------| 

|-19-17-16----------------------------------------------------| 
|----------19-17-15-19-17-15----------------------------------| 
|----------------------------18-16-14-18-16-14----------------| 
|----------------------------------------------18-16-14-16*---| 
|-------------------------------------------------------------| 
|-------------------------------------------------------------| 

|---------9-10-/17-16-14-/16-12-/16-14-12------------------------------| 
|------10---------------------------------15~--12p10----10-12p10----10-| 
|-/11------------------------------------------------11----------11----| 
|----------------------------------------------------------------------| 
|----------------------------------------------------------------------| 
|----------------------------------------------------------------------| 

|-------10h12-/16~--------------| 
|-10h12-------------------------| 
|-------------------------------| 
|-------------------------------| 
|-------------------------------| 
|-------------------------------| 


Chorus: 

|-------------------------------------------------------------------| 
|-------------------------------------------------------------------| 
|-------------------------------------------------------------------| 
|-6-6-6-6-6-6-6-6-7-7-7-7-7-7-7-7-7-7-7-7-7-7-7-7-6-6-6-6-6-6-6-6---| 
|-4-4-4-4-4-4-4-4-5-5-5-5-5-5-5-5-7-7-7-7-7-7-7-7-7-7-7-7-7-7-7-7---| 
|---------------------------------7-7-7-7-7-7-7-7-6-6-6-6-6-6-6-6---| 

|----------------------------------------------------------| 
|----------------------------------------------------------| 
|----------------------------------------------------------| 
|-4-4-4-4-4-4-4-4-7-7-7-7-7-7-7-7-7-7-7-7-7-7-7-7-6-6-6-6--| 
|-4-4-4-4-4-4-4-4-5-5-5-5-5-5-5-5-7-7-7-7-7-7-7-7-7-7-7-7--| 
|-4-4-4-4-4-4-4-4-----------------7-7-7-7-7-7-7-7-6-6-6-6--| 


Outro: 

|----------------------------7-9-7-9-10-9-7--------------------------| 
|------------------9-10-9-10----------------10-9---------9-10-9----9-| 
|----------11-9-11-------------------------------11-9-11--------11---| 
|-4--4--2------------------------------------------------------------| 
|-4--4--2------------------------------------------------------------| 
|-4--4--2------------------------------------------------------------| 
  .  .  . 

|------------------------------------| 
|------------------------------------| 
|------------------------------------| 
|-4-4-2-4---7~--2~-------------------| 
|-4-4-2-4---5~--2~-------------------| 
|-4-4-2-4-------2~-------------------| 
  . . . . 

|----------------------------7-9-7-9-10-9-7--------------------------| 
|------------------9-10-9-10----------------10-9---------9-10-9----9-| 
|----------11-9-11-------------------------------11-9-11--------11---| 
|-4--4--2------------------------------------------------------------| 
|-4--4--2------------------------------------------------------------| 
|-4--4--2------------------------------------------------------------| x2 
  .  .  . 

|---------------------| 
|---------------------| 
|---------------------| 
|-4-4-2-4/------------| 
|-4-4-2-4/------------| 
|-4-4-2-4/------------| 
  . . . 
	  

Search Paypal
auto scroll beats size up size down change color hide chords drawings
tab show chords e-chords YouTube Clip e-chords hide all tabs e-chords go to top tab

share with facebook