Black Veil Brides

home > Black Veil Brides

Fallen Angels Tab

Black Veil Brides

Difficulty: ExpertExpert

by gustsilva

tuner correct add songbook print version text version save to e-mail
chordsukulelecavacokeyboardtabbassdrumsharmonicsflute Guitar Pro
chords

Fallen Angels

  		


Intro: 
e|------------------------/10—8*--------10—8^---------/10--8--10--8------------| 
B|-----------^11---8---11--------10--------------------------------------------| 
G|----------------------------------10---------10--10--------------------------| 
D|-----------------------------------------------------------------------------| 
A|-----------------------------------------------------------------------------| 
E|-pick slide------------------------------------------------------------------| 

e|-----------------------------------------------------------15-17-18^--------| 
B|-10---11--10--11--13—11!--15-1617-1818-17-16-15-16-17-18-18-----------------| 
G|----------------------------------------------------------------------------| 
D|----------------------------------------------------------------------------| 
A|----------------------------------------------------------------------------| 
E|----------------------------------------------------------------------------| 

e|--------------------------------------------------------------------------| 
B|--------------------------------------------------------------------------| 
G|-------------------------------------------------2---2-3------------------| 
D|------7----7p8--------7---7p8------2---2p3--------------------------------| 
A|--------------------------------------------------------------------------| 
E|-5--5---5------5-5--5---5-----5--1---1-----1-1--1--1------1-3-------------| 

e|-------------------------------------------------------------------------| 
B|-------------------------------------------------------------------------| 
G|---2---2-3---------2---2-3-----------2------------------5---5—7----------| 
D|-------------------------------------------------------------------------| 
A|------------------------------------------3-3--3-------------------------| 
E|-3---3-----3-0--0----0------0--1---1---1--3-3--3---5--5---5-------5-5----| 

e|---------------------------------------------------------------------------| 
B|---------------------------------------------------------------------------| 
G|---------------------------------------------------------------------------| 
D|----5---5-7-----------5---5-7------5---5-7--------5---5-7------------------| 
A|---------------------------------------------------------------------------| 
E|--5---5-----5-1--1--1---1-----1--1---1-----1-1--1---1-----1-3--------------| 

e|-------------------------------------------------------------------------------| 
B|-------------------------------------------------------------------------------| 
G|-------------------------------------------------------------------------------| 
D|---5---5--7---------5---5-7--------5---5--7-------5----------------------------| 
A|------------------------------------------------------1--0----1----------------| 
E|-3---3------3-3--3----3-----3-0--0---0------0-1-1---1------3--1----------------| 

Refrγo: 
e|----------------------------------------------------------------------------| 
B|----------------------------------------------------------------------------| 
G|----------------------------------------------------------------------------| 
D|----------------------------------------------------------------------------| 
A|--1-1-11-1-11-----------------3-3-33-3--------3---5-3--0--1-----------------| 
E|--1-1-11-1-11{play many times}3-3-33-3---3--3---3---------------------------| 

e|------------------------------------------------------------------------------| 
B|------------------------------------------------------------------------------| 
G|------------------------------------------------------------------------------| 
D|----------------------------5-5-5------------1-1-1--1-1---3-3-3-3-------------| 
A|-1--1--111----3-3--33--3----5-5-5------------1-1-1--1-1---3-3-3-3-------------| 
E|-1--1--111----3-3--33--3----5-5-5(many times)1-1-1--1-1---3-3-3-3-------------| 

e|------------------------------------------------------------------------| 
B|------------------------------------------------------------------------| 
G|------------------------------------------------------------------------| 
D|-8-8-8-8--7-7-7-7----5--5----5-5-----1--1---1-1--1---3--3---3-3-3-------| 
A|-8-8-8-8--7-7-7-7----5--5----5-5-----1--1---1-1--1---3--3---3-3-3-------| 
E|-8-8-8-8--7-7-7-7----5--5----5-5-----1--1---1-1--1---3--3---3-3-3-------| 

e|-----------------------------------------------------------------------------| 
B|-----------------11^----8--10—11*-11*--11-13--11—10^-------------------------| 
G|-----------------------------------------------------------------------------| 
D|--3-3------------------------------------------------------------------------| 
A|--3-3------------------------------------------------------------------------| 
E|--3-3--12-12-12--------------------------------------------------------------| 

e|-------------------------------------------------------------------------------| 
B|----------11-10-11-13-11-10--------11*--8--10—11*-11*-11--13-11-11-13----------| 
G|--10--12--------------------12-10----------------------------------------------| 
D|-------------------------------------------------------------------------------| 
A|-------------------------------------------------------------------------------| 
E|-------------------------------------------------------------------------------| 

e|-----11-10-11-13--15-13--11-----------------------------------------------| 
B|-10^------------------------13^*-------15—15^--15^------------------------| 
G|--------------------------------------------------------------------------| 
D|--------------------------------------------------------------------------| 
A|--------------------------------------------------------------------------| 
E|--------------------------------------------------------------------------| 

e|--------------------------------------------------------------------------| 
B|-13-15-13-11/--13^--13—13b----11-13-11-10^---11^--11^p--11----------------| 
G|--------------------------------------------------------------------------| 
D|--------------------------------------------------------------------------| 
A|--------------------------------------------------------------------------| 
E|--------------------------------------------------------------------------| 

e|-------------------------------------------------------15-17-18^--------------| 
B|-10-11-10-11--13—11!--15-1617-1818-17-16-15-16-17-18-18-----------------------| 
G|------------------------------------------------------------------------------| 
D|------------------------------------------------------------------------------| 
A|------------------------------------------------------------------------------| 
E|------------------------------------------------------------------------------| 

e|-------------------------------------------------------------------------| 
B|-------------------------------------------------------------------------| 
G|---------------------------------2----2-3------2---2-3-------------------| 
D|-----7---7-8-------7---7-8-----------------------------------------------| 
A|-------------------------------------------------------------------------| 
E|-5-5---5-----5-5-5---5-----5-1--1---1-----1-1-1--1-----3--0--------------| 

e|--------------------------------------------------------------------------| 
B|--------------------------------------------------------------------------| 
G|------2---2-3-------2------------------5---5--7--------5---5-7------------| 
D|--------------------------------------------------------------------------| 
A|-------------------------3-3-3--------------------------------------------| 
E|--0--0--0-----0-1-1---1--3-3-3—5/--5--5--5------5-5--5---5-----5--1-------| 

e|--------------------------------------------------------------------------| 
B|--------------------------------------------------------------------------| 
G|---5---5-7-------5----5-7--------5---5--7--------5----5-7-----------------| 
D|--------------------------------------------------------------------------| 
A|--------------------------------------------------------------------------| 
E|-1---1-----1-1-1----1-----1-3--3---3------3-3--3----3------3--0-----------| 

e|--------------------------------------------------------------------------| 
B|--------------------------------------------------------------------------| 
G|------5---5-7--------5----------------------------------------------------| 
D|--------------------------------------------------------------------------| 
A|-------------------------1--0----1/---1-1--11--1-1--1-1-1-11--------------| 
E|-0-0----0-----0-1--1----1------3—1/---1-1--11--1-1--1-1-1-11--------------| 

e|--------------------------------------------------------------------------| 
B|--------------------------------------------------------------------------| 
G|--------------------------------------------------------------------------| 
D|--------------------------------------------------------------------------| 
A|-3-3-3-3-3-3------3---5-3--0-1--1-1-1--1-1-11--3-33-3-33------------------| 
E|-3-3-3-3-3-3--3-3---3-----------1-1-1--1-1-11--3-33-3-33------------------| 

e|--------------------------------------------------------------------------| 
B|--------------------------------------------------------------------------| 
G|--------------------------------------------------------------------------| 
D|-5-5-5—-5--1-1-1--1--3-3-3-3---8-8-8-8--7-7-7-7---5-5-5-5-----------------| 
A|-5-5-5--5--1-1-1--1--3-3-3-3---8-8-8-8--7-7-7-7---5-5-5-5-----------------| 
E|-5-5-5--5--1-1-1--1--3-3-3-3---8-8-8-8--7-7-7-7---5-5-5-5-----------------| 

e|-----------------------------------------------------------------------------------| 
B|-------------------------------------11^----8---10—11*11*-11—13--11----------------| 
G|10^--------------------------------------------------------------------------------| 
D|-1-1-1-1-1--3-3-3-3-3-3-3-3--------------------------------------------------------| 
A|-1-1-1-1-1--3-3-3-3-3-3-3-3--------------------------------------------------------| 
E|-1-1-1-1-1--3-3-3-3-3-3-3-3-12-12-12-----------------------------------------------| 

e|--------------------------------------------------------------------------| 
B|--------11-10-11-13-11-10-------11-----8    --10--------------------------| 
G|-10--12-------------------12-10-------------------------------------------| 
D|--------------------------------------------------------------------------| 
A|--------------------------------------------------------------------------| 
E|--------------------------------------------------------------------------| 

e|--------------------------------11--10-11-13-15-13-15-13-11-10------------| 
B|-11^--11^-11--13--11-13------10-------------------------------------------| 
G|--------------------------------------------------------------------------| 
D|--------------------------------------------------------------------------| 
A|--------------------------------------------------------------------------| 
E|--------------------------------------------------------------------------| 

Solo: 
e|--------------------------------------------------------------------------| 
B|--------------------------------------------------------------------------| 
G|--------------------------------------------------------------------------| 
D|--------------------------------------------------------------------------| 
A|-5-5-5-5---1-1-1-1-11----3-3-3-3-3---8-8-8-8--8-8--55-55------------------| 
E|-5-5-5-5---1-1-1-1-11----3-3-3-3-3---8-8-7-7--7-7--55-55------------------| 

e|------------------------------11-13-15-11-13-15---------------------------| 
B|------------------------------------------------13-15-16-1315-16----------| 
G|--------------------------------------------------------------------------| 
D|--------------------------------------------------------------------------| 
A|-1-111-1--3-3-3-3--3-3--3-3-----------------------------------------------| 
E|-1-111-1--3-3-3-3--3-3--3-3-----------------------------------------------| 

e|-10-11-13-10-11-13---------------------8-10-11-8-10-11--------------------| 
B|-------------------11-13-15--11--13-15-----------------10-11-13-10-11-13--| 
G|--------------------------------------------------------------------------| 
D|--------------------------------------------------------------------------| 
A|--------------------------------------------------------------------------| 
E|--------------------------------------------------------------------------| 

e|--------------------------------------------------------------------------| 
B|-13-11-10-11-10---------------------------15------------------------------| 
G|----------------12--14--12-10---------------------------------------------| 
D|-------------------------------12^*---12^----12---------------------------| 
A|--------------------------------------------------------------------------| 
E|--------------------------------------------------------------------------| 

e|--------------------------------------------------------------------------| 
B|--15--20-20-20-20/15-15-15—15/-16-16-16-16--18-18-18--18-18---------------| 
G|--------------------------------------------------------------------------| 
D|--------------------------------------------------------------------------| 
A|--------------------------------------------------------------------------| 
E|--------------------------------------------------------------------------| 

e|--------------------------------------------------------------------------| 
B|---18-13-13-13-13-15-15-15-15—11^^^^^^^^^^^^^-----------------------------| 
G|--------------------------------------------------------------------------| 
D|--------------------------------------------------------------------------| 
A|--------------------------------------------------------------------------| 
E|--------------------------------------------------------------------------| 

e|--------------------------------------------------------------------------| 
B|--------------------------------------------------------------------------| 
G|--------------------------------------------------------------------------| 
D|---HAMMER ONNNNNNNNNNN----------------------------------------------------| 
A|--------------------------------------------------------------------------| 
E|--------------------------------------------------------------------------| 

e|------------------------------------------------------------------------| 
B|------------------------------------------------------------------------| 
G|------------------------------------------------------------------------| 
D|-5-5-5-5--1-1-1-1--33-3-3--88-88--77777--5555--11-1-1-------------------| 
A|-5-5-5-5--1-1-1-1--33-3-3--88-88--77777--5555--11-1-1-------------------| 
E|-5-5-5-5--1-1-1-1--33-3-3--88-88--77777--5555--11-1-1-------------------| 

e|-------------------------------------------------------------------------| 
B|-------------------11^-8--10—11^-11^-11-13--11-10------------------------| 
G|--------------------------------------------------10--12-----------------| 
D|-3-3-3-3-----------------------------------------------------------------| 
A|-3-3-3-3-----------------------------------------------------------------| 
E|-3-3-3-3---12-12-12------------------------------------------------------| 

e|--------------------------------------------------------------------------| 
B|-11-10--11-13--11-10---------------------------------------------10-------| 
G|----------------------12-10----11---8---10—11^-11^-11-13-11-13------------| 
D|--------------------------------------------------------------------------| 
A|--------------------------------------------------------------------------| 
E|--------------------------------------------------------------------------| 

e|-11-10-11-13--15-13-11----------------------------------------------------| 
B|--------------------------------------------------------------------------| 
G|--------------------------------------------------------------------------| 
D|------------------------5555-555------------------------------------------| 
A|------------------------5555-555------------------------------------------| 
E|------------------------5555-555—REPEAtCORO-------------------------------| 

Outro: 
e|-------------------------------------------------------------------------| 
B|-------------------11^-8--10—11^-11^-11-13--11-10------------------------| 
G|--------------------------------------------------10--12-----------------| 
D|-3-3-3-3-----------------------------------------------------------------| 
A|-3-3-3-3-----------------------------------------------------------------| 
E|-3-3-3-3---12-12-12------------------------------------------------------| 

e|--------------------------------------------------------------------------| 
B|-11-10--11-13--11-10---------------------------------------------10-------| 
G|----------------------12-10----11---8---10—11^-11^-11-13-11-13------------| 
D|--------------------------------------------------------------------------| 
A|--------------------------------------------------------------------------| 
E|--------------------------------------------------------------------------| 

e|-11-10-11-13--15-13-11--------------------------------------------------| 
B|------------------------------------------------------------------------| 
G|------------------------------------------------------------------------| 
D|------------------------5*----------------------------------------------| 
A|------------------------5*----------------------------------------------| 
E|-------------------------5*----------------------------------------------| 
	  

Search Paypal
auto scroll beats size up size down change color hide chords drawings
tab show chords e-chords YouTube Clip e-chords hide all tabs e-chords go to top tab