Black Veil Brides

Faithless

Black Veil Brides

tabs Expert expert

by  LUCICAMARGO

save to print version add songbook text version e-mail correct tuner
chordsukulelecavacokeyboardtabbassdrumsharmonicaflute Guitar Pro
close

there isn't a video lesson for this song

chords

Faithless

	  		

I would suggest that you click the Youtube link above and try to play along with Jake, 
otherwise it can seem 
pretty chaotic. 

ENJOY! 

Intro: 
D|---------------------------------------------------------------------------| 
A|---------------------------------------------------------------------------| 
F|---------------------------------------------------------------------------| 
C|---------------------------------------------------------------------------| 
G|-------6----3-5-----6-----3-5----------------------------------------------| 
C|0--0-0---0-0----0-0---0-0------5-3-1-0-------------------------------------| 


D|---------------------------------------------------------------------------| 
A|---------------------------------------------------------------------------| 
F|---------------------------------------------------------------------------| 
C|---------------------------------------------------------------------------| 
G|-------6-----3-5-----6----3-5---9h10p9h10p9h10-6h10p6h10p6h10--------------| 
C|0--0-0---0-0-----0-0---0-0-------------------------------------------------| 
                                  ^                           ^ 
(Right before the verse comes, you mute the last hammer on / pull off part) 

Verse: 
D|---------------------------------------------------------------------------| 
A|---------------------------------------------------------------------------| 
F|---------------------------------------------------------------------------| 
C|--------------------------5------------------------------------------------| 
G|----5-----3-5-----8-----7-------3------5-3-----5-----3-5-------3-0/6-5-3-0-| 
C|0-0---0-0-----0-0---0-0-----0-0---0-0------0-0---0-0-----0-0---3-0/6-5-3-0-| 

D|---------------------------------------------------------------------------| 
A|---------------------------------------------------------------------------| 
F|---------------------------------------------------------------------------| 
C|--------------------------5------------------------------------------------| 
G|----5----3-5-----8-----7----3h5p0------------------------------------------| 
C|0-0---0-0----0-0---0-0------------3h5p0--0-0--5-3-5-6b-5-3-5p3h5--0-1-3-0--| 

Pre-Chorus 
D|------------------------------------------------------------------------------| 
A|------------------------------------------------------------------------------| 
F|------------------------------------------------------------------------------| 
C|7-7-------------------------7-7-----------------------7-7---------------------| 
G|5-5-6-6-5-------------------5-5-6-6-5-----------------5-5-6-6-----------------| 
C|5-5-6-6-5--3-5-3-6-5-3-0----5-5-6-6-5--3-5-3-6-5-3----5-5-6-6-5--3-5-3-6-5-3--| 
                                         x x x x x x 
D|---------------------------------------------------------------------------| 
A|---------------------------------------------------------------------------| 
F|---------------------------------------------------------------------------| 
C|3-3-----7-77-7777----------------------------------------------------------| 
G|1-1-2-2-4-44-4444----------------------------------------------------------| 
C|1-1-----4-44-4444----------------------------------------------------------| 

Chorus: 
D|---------------------------------------------------------------------------| 
A|---------------------------------------------------------------------------| 
F|---------------------------------------------------------------------------| 
C|77777777--8888888----------------------------------------------------------| 
G|55555555--8888888--3333333--7777777--------7---7-10-8-7--------------------| 
C|----------8888888--3333333--7777777---7-10---10----------------------------| 

After the Chorus, go back and play the intro and add a pinching noice at 3rd fret 6th string. 

Breakdown: 
D|--7+(Whammy)---------------------------------------------------------------| 
A|---------------------------------------------------------------------------| 
F|---------------------------------------------------------------------------| 
C|---------------------------------------------------------------------------| 
G|0------0-0-000-000-000-00-000-000-000-------3------------------------------| 
C|0------0-0-000-000-000-00-000-000-000--6-5-3--1----------------------------| 
You can add a harmonic pinch at the high e string on the 7th fret and bend it with a  
Whammy Bar 

D|---------------------------------------------------------------------------| 
A|---------------------------------------------------------------------------| 
F|---------------------------------------------------------------------------| 
C|---------------------------------------------------------------------------| 
G|0-0-000-000-000-0-0-000-000-000--------------------------------------------| 
C|0-0-000-000-000-0-0-000-000-000--3p0h3-6-5-1-0-----------------------------| 

Solo: 
D|-------------------------------------------------------------------------------| 
A|(18)-15-13-10------------------------------------------------------------------| 
F|-------------------------------------------------------------------------------| 
C|-------------------------------------------------------------------------------| 
G|-------------------------------------------------------------------------------| 
C|-------------------------------------------------------------------------------| 
You are going to start the tapping on the B string on the 18th fret. 
In-between the parts he is doing a double tap on the 18th fret. 
(Watch the video, it is a lot easier than watching this) 

Diminised String Skip Tap - The fret you are tapping on are marked with a () 
D|-(13)-10-7------------(17)-13-9------------(19)-16-13---20b----------------| 
A|---------------------------------------------------------------------------| 
F|---------(13)-10-7--------------(17)-13-9----------------------------------| 
C|---------------------------------------------------------------------------| 
G|---------------------------------------------------------------------------| 
C|---------------------------------------------------------------------------| 

This part is not tapping, but just regular picking. 
D|-20h22p20-17---------------------------------------------------------------| 
A|-------------21--------9---9-----------9-12----9---------------------------| 
F|-------------------/12---12--12-13-12b------12---12------------------------| 
C|---------------------------------------------------------------------------| 
G|---------------------------------------------------------------------------| 
C|---------------------------------------------------------------------------| 

Sweep part: 
D|-------------12-15-12-------------------------11-17b-----------------------| 
A|-----------13--------13---------------------15-----------------------------| 
F|--------14-------------14-----------------14-------------------------------| 
C|------14----------------14--------------15---------------------------------| 
G|12h15---------------------15p12/--14h17------------------------------------| 
C|---------------------------------------------------------------------------| 

Lead part after Solo: 
D|-15-9-14-----9-------------------------------------------------------------| 
A|----------13----13---------------------------------------------------------| 
F|--------------15-----------------------------------------------------------| 
C|---------------------------------------------------------------------------| x8 
G|---------------------------------------------------------------------------| 
C|---------------------------------------------------------------------------| 

D|---------------------------------------------------------------------------| 
A|---------------------------------------------------------------------------| 
F|12-14-12-14-9-12-----------------------------------------------------------| 
C|-----------------15-12-----------------------------------------------------| 
G|---------------------------------------------------------------------------| 
C|---------------------------------------------------------------------------| 

Breakdown riff and outro: 
D|---------------------------------------------------------------------------| 
A|---------------------------------------------------------------------------| 
F|---------------------------------------------------------------------------| 
C|---------------------------------------------------------------------------| 
G|----3----------------------------------------------------------------------| 
C|0-0-3-0-3/6-5-3-3-0-0-3/6-3b-----------------------------------------------| x4 End 
the song with an open E 
                    x x 


************************************ 

| /   slide up 
| \   slide down 
| h   hammer-on 
| p   pull-off 
| ~   vibrato 
| +   harmonic 
| x   Mute note 
| b   Bend 

************************************ 
		  

Full key step upFull key step up
Half key step upHalf key step up
Half key step downHalf key step down
Full key step downFull key step down
hide glossary

See also:

tabs Van Halen - Jump tabs The Doors - Roadhouse Blues tabs John Mayer - Belief tabs The Doors - People Are Strange tabs Guns N' Roses - Sweet Child o' mine tabs Aerosmith - Dream On
e-chords

Other versions:

tabs Injected - Faithless tabs Rivermaya - Faithless tabs Sevendust - Faithless tabs Black Veil Brides - Faithless tabs Injected - Faithless (ver. 2)
auto scroll beats size up size down change color hide chords drawings
tab show chords e-chords YouTube Clip e-chords hide all tabs e-chords go to top tab

share