Black Style

home > Black Style

Marca Do Grilo Tab

Black Style

Difficulty: BeginnerBeginner

by marcnagel

tuner correct add songbook print version text version save to e-mail
chordsukulelecavacokeyboardtabbassdrumsharmonicsflute Guitar Pro
chords

Marca Do Grilo

  		
e|------------------12-------------------------------12----------------------------| 
B|--12-12-12-12-12-----12-10-12-------12-12-12-12-12----12-10-12-14-12-------------| 
G|---------------------------------------------------------------------------------| 
D|---------------------------------------------------------------------------------| 
A|---------------------------------------------------------------------------------| 
E|---------------------------------------------------------------------------------| 

e|-12----12-----------12----12-----------12----12----12----12----12----12----------| 
B|----12----12-10-9-7----12----12-10-9-7----12----12----12----12----12----12-10-9-7| 
G|---------------------------------------------------------------------------------| 
D|---------------------------------------------------------------------------------| 
A|---------------------------------------------------------------------------------| 
E|---------------------------------------------------------------------------------| 

e|---------------------------------------------------------| 
B|--7-9-12-10-9-7----9-10-12-10-9-7----9-10-12-10-9-7------| 
G|---------------------------------------------------------| 
D|---------------------------------------------------------| 
A|---------------------------------------------------------| 
E|---------------------------------------------------------| 
	  

Search Paypal
auto scroll beats size up size down change color hide chords drawings
tab show chords e-chords YouTube Clip e-chords hide all tabs e-chords go to top tab