save to print version add songbook text version e-mail correct tuner
chordsukulelecavacokeyboardtabbassdrumsharmonicaflute Guitar Pro
close

there isn't a video lesson for this song

chords

Change

	  		Intro 

  GTR I,II 
d|-------------------------------------------------| 
A|-------------------------------------------------| 
F|-------------------------------------------------| 
C|-------------------------------------------------| 
G|--0--0--0--0--0-----------------0--------0-------| 
C|--0--0--0--0--0-----------------0--------0-------| 
    .  .  .  .  .                 .        . 

  GTR I,II 
d|-------------------------------------------------| 
A|-------------------------------------------------| 
F|-------------------------------------------------| 
C|-------------------------------------------------| 
G|--0--0--0-----------------0--0--0--0--0----------| 
C|--0--0--0-----------------0--0--0--0--0----------| 
    .  .  .                 .  .  .  .  . 

  GTR I,II 
d|-------------------------------------------------| 
A|-------------------------------------------------| 
F|-------------------------------------------------| 
C|-------------------------------------------------| 
G|--0--0--0--0--0-----------------0--------0-------| 
C|--0--0--0--0--0-----------------0--------0-------| 
    .  .  .  .  .                 .        . 

  GTR I,II 
d|-------------------------------------------------| 
A|-------------------------------------------------| 
F|-------------------------------------------------| 
C|-------------------------------------------------| 
G|--0--0--0-----------------0--0--0--0--0----------| 
C|--0--0--0-----------------0--0--0--0--0----------| 
    .  .  .                 .  .  .  .  . 

Main Riff 

  GTR I,II 
d|-------------------------------------------------| 
A|-------------------------------------------------| 
F|-------------------------------------------------| 
C|-------------------------------------------------| 
G|-------------------------------------------------| 
C|-12--0--0--0-15--0--0--0--3h-5--5--5--5p-3--3--3-| 

  GTR I,II 
d|-------------------------------------------------| 
A|-------------------------------------------------| 
F|-------------------------------------------------| 
C|-------------------------------------------------| 
G|-------------------------------------------------| 
C|-12--0--0--0-15--0--0--0--3h-5--5--5--5p-3--3--3-| 

  GTR I,II 
d|-------------------------------------------------| 
A|-------------------------------------------------| 
F|-------------------------------------------------| 
C|-------------------------------------------------| 
G|-------------------------------------------------| 
C|-12--0--0--0-15--0--0--0--3h-5--5--5--5p-3--3--3-| 

  GTR I,II 
d|-------------------------------------------------| 
A|-------------------------------------------------| 
F|-------------------------------------------------| 
C|-------------------------------------------------| 
G|-------------------------------------------------| 
C|--3h-5--0--0--0--0--8p-5--0--0--0--0--8h10--0--0-| 
          .  .  .  .        .  .  .  .        .  . 

Verse 

  GTR II 
d|-------------------------------------------------| 
A|-------------------------------------------------| 
F|-------------------------------------------------| 
C|-------------------------------------------------| 
G|-------------------------------------------------| 
C|--3--0--0--0--3--0--0--0--5--0--0--0--5--0--0--0-| 
    .  .  .  .  .  .  .  .  .  .  .  .  .  .  .  . 

  GTR II 
d|-------------------------------------------------| 
A|-------------------------------------------------| 
F|-------------------------------------------------| 
C|-------------------------------------------------| 
G|-------------------------------------------------| 
C|--8--0--0--0--8--0--0--0-10--0--0--0-10--0--0--0-| 
    .  .  .  .  .  .  .  .  .  .  .  .  .  .  .  . 

  GTR II 
d|-------------------------------------------------| 
A|-------------------------------------------------| 
F|-------------------------------------------------| 
C|-------------------------------------------------| 
G|-------------------------------------------------| 
C|--3--0--0--0--3--0--0--0--5--0--0--0--5--0--0--0-| 
    .  .  .  .  .  .  .  .  .  .  .  .  .  .  .  . 

  GTR II 
d|-------------------------------------------------| 
A|-------------------------------------------------| 
F|-------------------------------------------------| 
C|--------------------------------------------3----| 
G|--------------------------------------------3----| 
C|--8--0--0--0--8--0--0--0-10--0--0--0-10--0--3----| 
    .  .  .  .  .  .  .  .  .  .  .  .  .  .       

Pre Chorus 

  GTR I,II 
d|-------------------------------------------------| 
A|-------------------------------------------------| 
F|-------------------------------------------------| 
C|--3-----0-----------3-----3-----0-----------3----| 
G|--3-----0-----------3-----3-----0-----------3----| 
C|--3-----0-----------3-----3-----0-----------3----| 

  GTR I,II 
d|-------------------------------------------------| 
A|-------------------------------------------------| 
F|-------------------------------------------------| 
C|--3-----0-----------3-----3-----------5/----7----| 
G|--3-----0-----------3-----3-----0-----3/----5----| 
C|--3-----0-----------3-----3-----0----------------| 
                                  . 

  GTR I,II 
d|-------------------------------------------------| 
A|-------------------------------------------------| 
F|-------------------------------------------------| 
C|--3-----0-----------3-----3-----0-----------3----| 
G|--3-----0-----------3-----3-----0-----------3----| 
C|--3-----0-----------3-----3-----0-----------3----| 

  GTR I,II 
d|-------------------------------------------------| 
A|-------------------------------------------------| 
F|-------------------------------------------------| 
C|--3-----0-----------3-----3-----0----------------| 
G|--3-----0-----------3-----3-----0----------------| 
C|--3-----0-----------3-----3-----0----------------| 

Chorus 

  GTR I 
d|-------------------------------------------------| 
A|-------------------------------------------------| 
F|-------------------------------------------------| 
C|--0-----0-----0-----0-----0-----0-----0-----0----| 
G|--0-----0-----0-----0-----0-----0-----0-----0----| 
C|--0-----0-----0-----0-----0-----0-----0-----0----| 
 | 
 |GTR II 
d|-------------------------------------------------| 
A|-13----------------15----------------------------| 
F|-------------------------------------14----------| 
C|-------------------------------------------------| 
G|-------------------------------------------------| 
C|-------------------------------------------------| 

  GTR I 
d|-------------------------------------------------| 
A|-------------------------------------------------| 
F|-------------------------------------------------| 
C|--3-----3-----3-----3-----3-----3-----3-----3----| 
G|--3-----3-----3-----3-----3-----3-----3-----3----| 
C|--3-----3-----3-----3-----3-----3-----3-----3----| 
 | 
 |GTR II 
d|-------------------------------------------------| 
A|-13----------------15----------------------------| 
F|-------------------------------------14----------| 
C|-------------------------------------------------| 
G|-------------------------------------------------| 
C|-------------------------------------------------| 

  GTR I 
d|-------------------------------------------------| 
A|-------------------------------------------------| 
F|-------------------------------------------------| 
C|--5-----5-----5-----5-----5-----5-----5-----5----| 
G|--5-----5-----5-----5-----5-----5-----5-----5----| 
C|--5-----5-----5-----5-----5-----5-----5-----5----| 
 | 
 |GTR II 
d|-------------------------------------------------| 
A|-13----------------15----------------------------| 
F|-------------------------------------14----------| 
C|-------------------------------------------------| 
G|-------------------------------------------------| 
C|-------------------------------------------------| 

  GTR I 
d|-------------------------------------------------| 
A|-------------------------------------------------| 
F|-------------------------------------------------| 
C|--5-----5-----5-----5-----5-----5-----5-----5----| 
G|--5-----5-----5-----5-----5-----5-----5-----5----| 
C|--5-----5-----5-----5-----5-----5-----5-----5----| 
 | 
 |GTR II 
d|-------------------------------------------------| 
A|-------------------------------------------------| 
F|-12----------------------------------------------| 
C|-------------------15----------------14----------| 
G|-------------------------------------------------| 
C|-------------------------------------------------| 

  GTR I 
d|-------------------------------------------------| 
A|-------------------------------------------------| 
F|-------------------------------------------------| 
C|--0-----0-----0-----0-----0-----0-----0-----0----| 
G|--0-----0-----0-----0-----0-----0-----0-----0----| 
C|--0-----0-----0-----0-----0-----0-----0-----0----| 
 | 
 |GTR II 
d|-------------------------------------------------| 
A|-13----------------15----------------------------| 
F|-------------------------------------14----------| 
C|-------------------------------------------------| 
G|-------------------------------------------------| 
C|-------------------------------------------------| 

  GTR I 
d|-------------------------------------------------| 
A|-------------------------------------------------| 
F|-------------------------------------------------| 
C|--3-----3-----3-----3-----3-----3-----3-----3----| 
G|--3-----3-----3-----3-----3-----3-----3-----3----| 
C|--3-----3-----3-----3-----3-----3-----3-----3----| 
 | 
 |GTR II 
d|-------------------------------------------------| 
A|-13----------------15----------------------------| 
F|-------------------------------------14----------| 
C|-------------------------------------------------| 
G|-------------------------------------------------| 
C|-------------------------------------------------| 

  GTR I 
d|-------------------------------------------------| 
A|-------------------------------------------------| 
F|-------------------------------------------------| 
C|--5-----5-----5-----5-----5-----5-----5-----5----| 
G|--5-----5-----5-----5-----5-----5-----5-----5----| 
C|--5-----5-----5-----5-----5-----5-----5-----5----| 
 | 
 |GTR II 
d|-------------------------------------------------| 
A|-13----------------15----------------------------| 
F|-------------------------------------14----------| 
C|-------------------------------------------------| 
G|-------------------------------------------------| 
C|-------------------------------------------------| 

  GTR I 
d|-------------------------------------------------| 
A|-------------------------------------------------| 
F|-------------------------------------------------| 
C|--5-----5-----5-----5-----5-----5-----5-----5----| 
G|--5-----5-----5-----5-----5-----5-----5-----5----| 
C|--5-----5-----5-----5-----5-----5-----5-----5----| 
 | 
 |GTR II 
d|-------------------------------------------------| 
A|-------------------------------------------------| 
F|-12----------------------------------------------| 
C|-------------------15----------------14----------| 
G|-------------------------------------------------| 
C|-------------------------------------------------| 

Main Riff 

Verse 2 

NOTE: GTR II plays "Verse" while GTR I plays the following 

  GTR I 
d|-------------|-------------|-------------|-------------| 
A|-------------|-------------|-------------|-------------| 
F|-------------|-------------|-------------|-------------| 
C|-------------|-------------|-------------|-------------| 
G|--8~---------|--7~---------|--6~---------|--5~---------| 
C|-------------|-------------|-------------|-------------| 

Pre Chorus 
Chorus 

Guitar Solo (Played by GTR I) 

  GTR II 
d|-------------------------------------------------| 
A|-------------------------------------------------| 
F|-------------------------------------------------| 
C|-12--------0-------10----12-----------0----------| 
G|-12--------0-------10----12-----------0----------| 
C|-12--------0-------10----12-----------0----------| 

  GTR II 
d|-------------------------------------------------| 
A|-------------------------------------------------| 
F|-------------------------------------------------| 
C|--------------------7-----6--------5--------3----| 
G|--------------------7-----6--------5--------3----| 
C|--------------------7-----6--------5--------3----| 

  GTR II 
d|-------------------------------------------------| 
A|-------------------------------------------------| 
F|-------------------------------------------------| 
C|--5--------0--------5-----6\----------3----------| 
G|--5--------0--------5-----6\----------3----------| 
C|--5--------0--------5-----6\----------3----------| 

  GTR II 
d|-------------------------------------------------| 
A|-------------------------------------------------| 
F|-------------------------------------------------| 
C|--------------------3-----2--------1--------0----| 
G|--------------------3-----2--------1--------0----| 
C|--------------------3-----2--------1--------0----| 

  GTR II 
d|-------------------------------------------------| 
A|-------------------------------------------------| 
F|-------------------------------------------------| 
C|-12--------0-------10----12-----------0----------| 
G|-12--------0-------10----12-----------0----------| 
C|-12--------0-------10----12-----------0----------| 

  GTR II 
d|-------------------------------------------------| 
A|-------------------------------------------------| 
F|-------------------------------------------------| 
C|--------------------7-----6--------5--------3----| 
G|--------------------7-----6--------5--------3----| 
C|--------------------7-----6--------5--------3----| 

  GTR II 
d|-------------------------------------------------| 
A|-------------------------------------------------| 
F|-------------------------------------------------| 
C|--5--------0--------5-----6\----------3----------| 
G|--5--------0--------5-----6\----------3----------| 
C|--5--------0--------5-----6\----------3----------| 

  GTR II 
d|-------------------------------------------------| 
A|-------------------------------------------------| 
F|-------------------------------------------------| 
C|--------------------3-----2--------1--------0----| 
G|--------------------3-----2--------1--------0----| 
C|--------------------3-----2--------1--------0----| 

Bridge 

  GTR II 
d|-------------------------------------------------| 
A|-------------------------------------------------| 
F|-------------------------------------------------| 
C|-12--------0-------10----12-----------0----------| 
G|-12--------0-------10----12-----------0----------| 
C|-12--------0-------10----12-----------0----------| 

  GTR II 
d|-------------------------------------------------| 
A|-------------------------------------------------| 
F|-------------------------------------------------| 
C|--------------------7-----6--------5--------3----| 
G|--------------------7-----6--------5--------3----| 
C|--------------------7-----6--------5--------3----| 

  GTR II 
d|-------------------------------------------------| 
A|-------------------------------------------------| 
F|-------------------------------------------------| 
C|--5--------0--------5-----6\----------3----------| 
G|--5--------0--------5-----6\----------3----------| 
C|--5--------0--------5-----6\----------3----------| 

  GTR II 
d|-------------------------------------------------| 
A|-------------------------------------------------| 
F|-------------------------------------------------| 
C|--------------------3-----2--------1--------0----| 
G|--------------------3-----2--------1--------0----| 
C|--------------------3-----2--------1--------0----| 

  GTR II 
d|-------------------------------------------------| 
A|-------------------------------------------------| 
F|-------------------------------------------------| 
C|-12--------0-------10----12-----------0/---------| 
G|-12--------0-------10----12-----------0/---------| 
C|-12--------0-------10----12-----------0/---------| 

  GTR II 
d|-------------------------------------------------| 
A|-------------------------------------------------| 
F|-------------------------------------------------| 
C|--------------------7-----6--------5--------3----| 
G|--------------------7-----6--------5--------3----| 
C|--------------------7-----6--------5--------3----| 

  GTR II 
d|-------------------------------------------------| 
A|-------------------------------------------------| 
F|-------------------------------------------------| 
C|--5--------0--------3-----6-----5-----3----------| 
G|--5--------0--------3-----6-----5-----3----------| 
C|--5--------0--------3-----6-----5-----3----------| 

  GTR II 
d|-------------------------------------------------| 
A|-------------------------------------------------| 
F|-------------------------------------------------| 
C|--------------------3-----2--------1--------0----| 
G|--------------------3-----2--------1--------0----| 
C|--------------------3-----2--------1--------0----| 

Interlude 

  GTR I,II 
d|-------------------------------------------------| 
A|-------------------------------------------------| 
F|-------------------------------------------------| 
C|-------------------------------------------------| 
G|--0--0--0--0--0-----------------0--------0-------| 
C|--0--0--0--0--0-----------------0--------0-------| 
    .  .  .  .  .                 .        . 

  GTR I,II 
d|-------------------------------------------------| 
A|-------------------------------------------------| 
F|-------------------------------------------------| 
C|-------------------------------------------------| 
G|--0--0--0-----------------0--0--0--0--0----------| 
C|--0--0--0-----------------0--0--0--0--0----------| 
    .  .  .                 .  .  .  .  . 

  GTR I,II 
d|-------------------------------------------------| 
A|-------------------------------------------------| 
F|-------------------------------------------------| 
C|-------------------------------------------------| 
G|--0--0--0--0--0-----------------0--------0-------| 
C|--0--0--0--0--0-----------------0--------0-------| 
    .  .  .  .  .                 .        . 

  GTR I,II 
d|-------------------------------------------------| 
A|-------------------------------------------------| 
F|-------------------------------------------------| 
C|-------------------------------------------------| 
G|--0--0--0-----------------0--0--0--0--0----------| 
C|--0--0--0-----------------0--0--0--0--0----------| 
    .  .  .                 .  .  .  .  . 

  GTR I,II 
d|-------------------------------------------------| 
A|-------------------------------------------------| 
F|-------------------------------------------------| 
C|-------------------------------------------------| 
G|--0--0--0--0--0-----------------0--------0-------| 
C|--0--0--0--0--0-----------------0--------0-------| 
    .  .  .  .  .                 .        . 

  GTR I,II 
d|-------------------------------------------------| 
A|-------------------------------------------------| 
F|-------------------------------------------------| 
C|-------------------------------------------------| 
G|--0--0--0-----------------0--0--0--0--0----------| 
C|--0--0--0-----------------0--0--0--0--0----------| 
    .  .  .                 .  .  .  .  . 

  GTR I,II 
d|-------------------------------------------------| 
A|-------------------------------------------------| 
F|-------------------------------------------------| 
C|-------------------------------------------------| 
G|--0--0--0--0--0-----------------0--------0-------| 
C|--0--0--0--0--0-----------------0--------0-------| 
    .  .  .  .  .                 .        . 

  GTR I,II 
d|-------------------------------------------------| 
A|-------------------------------------------------| 
F|-------------------------------------------------| 
C|-------------------------------------------------| 
G|--0----------------------------------------------| 
C|--0----------------------------------------------| 
    .                                       

Chorus 

Chorus 2 

  GTR I,II 
d|-------------------------------------------------| 
A|-------------------------------------------------| 
F|-------------------------------------------------| 
C|-------------------------------------------------| 
G|-------------------------------------------------| 
C|-12--0--0--0-12--0--0--0-12--0--0--0-12--0--0--0-| 

  GTR I,II 
d|-------------------------------------------------| 
A|-------------------------------------------------| 
F|-------------------------------------------------| 
C|-------------------------------------------------| 
G|-------------------------------------------------| 
C|--3--3--3--3--3--3--3--3--3--3--3--3--3--3--3--3-| 

  GTR I,II 
d|-------------------------------------------------| 
A|-------------------------------------------------| 
F|-------------------------------------------------| 
C|-------------------------------------------------| 
G|-------------------------------------------------| 
C|--3h-5--5--5--5--5--5--5--5--5--5--5--5--5--5--5-| 

  GTR I,II 
d|-------------------------------------------------| 
A|-------------------------------------------------| 
F|-------------------------------------------------| 
C|-------------------------------------------------| 
G|-------------------------------------------------| 
C|--5b---r5p-3--5p-3p-0-----5b---r5p-3--5p-3p-0----| 

  GTR I,II 
d|-------------------------------------------------| 
A|-------------------------------------------------| 
F|-------------------------------------------------| 
C|-------------------------------------------------| 
G|-------------------------------------------------| 
C|-12--0--0--0-12--0--0--0-12--0--0--0-12--0--0--0-| 

  GTR I,II 
d|-------------------------------------------------| 
A|-------------------------------------------------| 
F|-------------------------------------------------| 
C|-------------------------------------------------| 
G|-------------------------------------------------| 
C|--3--3--3--3--3--3--3--3--3--3--3--3--3--3--3--3-| 

  GTR I,II 
d|-------------------------------------------------| 
A|-------------------------------------------------| 
F|-------------------------------------------------| 
C|-------------------------------------------------| 
G|-------------------------------------------------| 
C|--3h-5--5--5--5--5--5--5--5--5--5--5--5--5--5--5-| 

  GTR I,II 
d|-------------------------------------------------| 
A|-------------------------------------------------| 
F|-------------------------------------------------| 
C|-------------------------------------------------| 
G|-------------------------------------------------| 
C|--5b---r5p-3--5p-3p-0-----5b---r5p-3--5p-3p-0----| 

Outro 

  GTR I,II 
d|-------------------------------------------------| 
A|-------------------------------------------------| 
F|-------------------------------------------------| 
C|-------------------------------------------------| 
G|-------------------------------------------------| 
C|-12--0--0--0-15--0--0--0--3h-5--5--5--5p-3--3--3-| 

  GTR I,II 
d|-------------------------------------------------| 
A|-------------------------------------------------| 
F|-------------------------------------------------| 
C|-------------------------------------------------| 
G|-------------------------------------------------| 
C|-12--0--0--0-15--0--0--0--3h-5--5--5--5p-3--3--3-| 

  GTR I,II 
d|-------------------------------------------------| 
A|-------------------------------------------------| 
F|-------------------------------------------------| 
C|-------------------------------------------------| 
G|-------------------------------------------------| 
C|-12--0--0--0-15--0--0--0--3h-5--5--5--5p-3--3--3-| 

  GTR I,II 
d|-----------------------------------------------------| 
A|-----------------------------------------------------| 
F|-----------------------------------------------------| 
C|-----------------------------------------------------| 
G|-----------------------------------------------------| 
C|--3h-5--0-0-0--0-0-0--8p-5--0-0-0--0-0-0--8h10-------| 
          . . .  . . .        . . .  . . .             
 
		  

See also:

tabs Guns N' Roses - 14 Years tabs Bon Jovi - It's My Life tabs Guns N' Roses - November Rain (Ver. Acoustic) tabs Guns N' Roses - Knockin' On Heaven's Door tabs The Doors - Love me 2 times tabs Guns N' Roses - Paradise City
e-chords

Other versions:

tabs Deftones - Change tabs Good Charlotte - Change tabs The Warren Brothers - Change tabs Black Stone Cherry - Change tabs Kopecky Family Band - Change tabs Losing September - Change
auto scroll beats size up size down change color hide chords drawings
tab show chords e-chords YouTube Clip e-chords hide all tabs e-chords go to top tab

share