Black Sabbath

home > Black Sabbath

Zeitgeist Tab

Black Sabbath

Difficulty: AdvancedAdvanced

by paulantunes

tuner correct add songbook print version text version save to e-mail
chordsukulelecavacokeyboardtabbassdrumsharmonicsflute Guitar Pro
chords

Zeitgeist

  		 

Tuning: Eb Ab Db Gb Bb Eb 


tabbed by andherembrace 



note:each time is played a little differently in these spots 
 sometimes more notes stacked/sometimes less- strummed harder/softer etc. 
i did my best to listen and put down what i heard 

             *             *        * 

------0--0-------------------0--0-------------| 
------0--0-------------------0--0-------------| 
------0--0-------------------0--0---0---------| 
------2--2---2---------------2--2---2---------| 
------2--2---2------0-2------2--2---2---------| 
-0----0--0---0--0-3-----0--0-0--0---0-0-3--3~-| 
                             



------0--0---0---------------0--0-------------| 
------0--0---0---------------0--0-------------| 
------0--0---0---------------0--0-------------| 
------2--2---2---------------2--2-------------| 
------2--2---2------0-2----2-2--2-------------| 
-0----0--0---0--0-3-----0--0-0--0---0-0-3--3~-| 
                            



------0--0---0---------------0--0-------------| 
------0--0---0---------------0--0-------------| 
------0--0---0---------------0--0-------------| 
------2--2---2---------------2--2-------------| 
------2--2---2------0-2------2--2-------------| 
-0----0--0---0--0-3-----0----0--0---0-0-3--3~-| 



------0--0---0---------------0--0---0---------| 
------0--0---0---------------0--0---0---------| 
------0--0---0---------------0--0---0---------| 
------2--2---2---------------2--2---2---------| 
------2--2---2------0-2----2-2--2---2-0-------| 
-0----0--0---0--0-3-----0--0-0--0---0-0-3--3~-| 



------0--0---0---------------0--0-------------| 
------0--0---0---------------0--0-------------| 
------0--0---0---------------0--0---0---------| 
------2--2---2---------------2--2---2---------| 
------2--2---2------0-2----2-2--2---2---------| 
-0----0--0---0--0-3-----0--0-0--0---0-0-3--3~-| 
                             

------0--0-------------------0--0-------------| 
------0--0-------------------0--0-------------| 
------0--0---0---------------0--0-------------| 
------2--2---2---------------2--2-------------| 
------2--2---2------0-2----2-2--2-------------| 
-0----0--0---0--0-3-----0--0-0--0---0-0-3--3~-| 






1;02 


----------------------------------------------------------| 
------8-----8------8-0-0----------------------------------| 
----5-----5------5-------5---------7-----7-----7----------| 
---------------------------7-----5-----5-----5---5--------| 
-0-------------0-----------------------------------7--5~--| 
------------------------------0---------------------------| 



----------------------------------------------------------| 
------8-----8------8-0-0----------------------------------| 
----5-----5------5-------5---------7-----7-----7----------| 
---------------------------7-----5-----5-----5---5--------| 
-0-------------0-----------------------------------7--5~--| 
------------------------------0---------------------------| 



----------------------------------------------------------| 
------8-----8------8-0-0----------------------------------| 
----5----5-------5-------5---------7-----7-----7----------| 
---------------------------7-----5-----5-----5---5--------| 
-0-------------0-----------------------------------7--5~--| 
------------------------------0---------------------------| 



----------------------------------------------------------------| 
------8-----8------8-0-0----------------------------------------| 
----5----5-------5-------5--------------------------------------| 
---------------------------7-----12------11-----9-----7-5-------| 
-0-------------0--------------10----10-9----9-7---7-5------3--2-| 
----------------------------------------------------------------| 







1:35 


------0--0---0---------------0--0-------------| 
------0--0---0---------------0--0-------------| 
------0--0---0---------------0--0-------------| 
------2--2---2---------------2--2-------------| 
------2--2---2------0-2------2--2-------------| 
-0----0--0---0--0-3-----0--0-0--0---0-0-3--3~-| 
                             

------0--0-------------------0--0--------------| 
------0--0-------------------0--0--------------| 
------0--0---0---------------0--0--------------| 
------2--2---2---------------2--2--------------| 
------2--2---2------0-2----2-2--2----0-2-------| 
-0----0--0---0--0-3-----0--0-0--0--3-----3--3~-| 
    
                          
------0--0-------------------0--0-------------| 
------0--0-------------------0--0-------------| 
------0--0---0---------------0--0-------------| 
------2--2---2---------------2--2-------------| 
------2--2---2------0-2----2-2--2-------------| 
-0----0--0---0--0-3-----0--0-0--0---0-0-3--3~-| 



------0--0---0---------------0--0-------------| 
------0--0---0---------------0--0-------------| 
------0--0---0---------------0--0-------------| 
------2--2---2---------------2--2-------------| 
------2--2---2------0-2------2--2---2---------| 
-0----0--0---0--0-3-----0----0--0---0-0-3--3~-| 


------0--0---0---------------0--0-------------| 
------0--0---0---------------0--0-------------| 
------0--0---0---------------0--0-------------| 
------2--2---2---------------2--2-------------| 
------2--2---2------0-2----2-2--2-------------| 
-0----0--0---0--0-3-----0--0-0--0---0-0-3--3~-| 






2:18 



----------------------------------------------------------| 
------8-----8------8-0-0----------------------------------| 
----5-----5------5-------5---------7-----7-----7----------| 
---------------------------7-----5-----5-----5---5--------| 
-0-------------0-----------------------------------7--5~--| 
------------------------------0---------------------------| 



----------------------------------------------------------| 
------8-----8------8-0-0----------------------------------| 
----5-----5------5-------5---------7-----7-----7----------| 
---------------------------7-----5-----5-----5---5--------| 
-0-------------0-----------------------------------7--5~--| 
------------------------------0---------------------------| 



----------------------------------------------------------| 
------8-----8------8-0-0----------------------------------| 
----5----5-------5-------5---------7-----7-----7----------| 
---------------------------7-----5-----5-----5---5--------| 
-0-------------0-----------------------------------7--5~--| 
------------------------------0---------------------------| 



----------------------------------------------------------------| 
------8-----8------8-0-0----------------------------------------| 
----5----5-------5-------5--------------------------------------| 
---------------------------7-----12------11-----9-----7-5-------| 
-0-------------0--------------10----10-9----9-7---7-5------3--2-| 
----------------------------------------------------------------| 





2:51 


-0---0-0-0-0---0-0-0-0-0-0-0--2---2-2-2-3---2-2-2-3--2---| 
-1---1-1-1-1---1-1-1-1-1-1-1--3---3-3-3-3---3-3-3-3--3---| 
-0---0-0-0-0---0-0-0-0-0-0-0--2---2-2-2-2---2-2-2-2--2---| 
-2---2-2-2-2---2-2-2-2-2-2-2--0---0-0-0-0---0-0-0-0--0---| 
-3---3-3-3-3---3-3-3-3-3-3-3-----------------------------| 
---------------------------------------------------------| 


-0---0-0-0-0---0-0-0-0-0-0-0--2---2-2-2-3---2-2-2-0--2---| 
-1---1-1-1-1---1-1-1-1-1-1-1--3---3-3-3-3---3-3-3-3--3---| 
-0---0-0-0-0---0-0-0-0-0-0-0--2---2-2-2-2---2-2-2-2--2---| 
-2---2-2-2-2---2-2-2-2-2-2-2--0---0-0-0-0---0-0-0-0--0---| 
-3---3-3-3-3---3-3-3-3-3-3-3-----------------------------| 
---------------------------------------------------------| 


-0---0-0-0-0---0-0-0-0-0-0-0--2---2-2-2-3---2-2-2-3--2----| 
-1---1-1-1-1---1-1-1-1-1-1-1--3---3-3-3-3---3-3-3-3--3----| 
-0---0-0-0-0---0-0-0-0-0-0-0--2---2-2-2-2---2-2-2-2--2----| 
-2---2-2-2-2---2-2-2-2-2-2-2--0---0-0-0-0---0-0-0-0--0----| 
-3---3-3-3-3---3-3-3-3-3-3-3----------------------------2-| 
--------------------------------------------------------0-| 








3:22 


----------------------------------------------------| 
------^---------------------------------------------| 
-12-11-12--------------------------11--12-----------| 
----------12/14----------------------------12--14---| 
------------------------------------9-/10-----------| 
---------------------------------0------------------| 



3:30 

-----------------------------------------------------------------| 
-----------------------------------------------------------------| 
/14--12----------------------------------------------------------| 
--------14-12----14--12--12--/12~~---------------^---------------| 
--------------14----------------------14-12-10-12-10-12-10-------| 
-----------------------------------------------------------12----| 
                   |   |   | 



3:38 

---------------------------------| 
----------------)----------------| 
------12-14---15-----------------| 
---14------14-----14~------------| 
-14------------------------------| 
---------------------------------| 
            * 


3:44 

-----------------------------------------------------------------------| 
-----------------------------------------------------------------------| 
14--11-----------------------------------------------------------------| 
------12----14--12--12--12~---12---------------------------------------| 
--------14-----------------14----14\12-10----12--12--14-12~---10-12----| 
------------------------------------------12------------------------12-| 
              |   |   |                        |   |   |    



3:55 


-15-12----14-12----------------------------------------------------------| 
-------15-------15-12----12----------------------------------------------| 
----------------------14----12\11-14-11----11----------------------------| 
----------------------------------------12----14-12-14-12----------------| 
----------------------------------------------------------14\12-10/12-14-| 
-------------------------------------------------------------------------| 



4:01 

---------------------------------------------------------------| 
---------------------------------------------------------------| 
---------------------------------------------------------------| 
------------9--10--9-10-9~~------------------------------------| 
-9--10--12--------------------12-10-9~~~~~---------^-----------| 
-------------------------------------------------12-10-12------| 



4:11 

------------------------------------------------------------------------| 
------------------------------------------------------------------------| 
---____----------------------------------------------------12-11--14-12-| 
--/    \----------12-----------------------------7/9-12-14--------------| 
-9-10-9----9--10-----9--10--12------------7-9-10------------------------| 
--------12--------------------------------------------------------------| 



4:19 

--------------------------------__-------------------| 
-------------------------------/  \------------------| 
---------------------12--14--12-14-12-11-------------| 
-12--14-----------------------------------14--12--14-| 
---------14~-----------------------------------------| 
-----------------------------------------------------| 



4:27 

-------------------------| 
-------------------------| 
-------------------------| 
--------7-9--------------| 
-7-9-10------5-7~--------| 
-------------------------| 
	  

Search Paypal
auto scroll beats size up size down change color hide chords drawings
tab show chords e-chords YouTube Clip e-chords hide all tabs e-chords go to top tab