Black Sabbath

home > Black Sabbath

Sabra Cadabra Tab

Black Sabbath

Difficulty: EasyEasy

tuner correct add songbook print version text version save to e-mail
chordsukulelecavacokeyboardtabbassdrumsharmonicsflute Guitar Pro
chords

Sabra Cadabra

  		Gtr I ({D G C F A D}) - 'Gtr. 1'
Gtr II ({D G C F A D}) - 'Gtr. 2'

  Q=146
 4/4
  Gtr I
                         ~~~~~~
           |-3-|                 |-3-|
  E H    E E E E   E E E E +E  E E E E
|----------------|---------------------|
|----------------|---------------------|
|--------------7-|-------------------7-|
|----------------|-9-9---9-(9)---------|
|--------7-8h9---|-------------7-8h9---|
|----------------|---------------------|


        ~~~~~~                  ~~~~~~
                |-3-|   |-3-|           |-3-|
  E E E E +E  E E E E   E E E E E +E  E E E E
|---------------------|-----------------------|
|---------------------|-----------------------|
|---------------------|-----------------------|
|-9-9---9-(9)-------7-|---------------------7-|
|-------------7-8h9---|-9s7-5---------7-8h9---|
|---------------------|-------7-7-(7)---------|


          ~~~~~~                ~~~~~~                ~~~~~~
  |-3-|           |-3-|                 |-3-|                 |-3-|
  E E E E E +E  E E E E   E E E E +E  E E E E   E E E E +E  E E E E
|-----------------------|---------------------|---------------------|
|-----------------------|---------------------|---------------------|
|---------------------7-|-------------------7-|---------------------|
|-----------------------|-9-9---9-(9)---------|-9-9---9-(9)-------7-|
|-9s7-5---------7-8h9---|-------------7-8h9---|-------------7-8h9---|
|-------7-7-(7)---------|---------------------|---------------------|


                          Gtrs I, II
          ~~~~~~                  ~~~~~~                ~~~~~~
  |-3-|           |-3-|   |-3-|           |-3-|                 |-3-|
  E E E E E +E  E E E E   E E E E E +E  E E E E   E E E E +E  E E E E
|-----------------------|-----------------------|----------------------|
|-----------------------|-----------------------|----------------------|
|-----------------------|---------------------7-|-------------------7--|
|---------------------7-|-----------------------|-9-9---9-(9)----------|
|-9s7-5---------7-8h9---|-9s7-5---------7-8h9---|-------------7-8h9----|
|-------7-7-(7)---------|-------7-7-(7)---------|----------------------|


        ~~~~~~                  ~~~~~~                  ~~~~~~
                |-3-|   |-3-|           |-3-|   |-3-|           |-3-|
  E E E E +E  E E E E   E E E E E +E  E E E E   E E E E E +E  E E E E
|---------------------|-----------------------|------------------------|
|---------------------|-----------------------|------------------------|
|---------------------|-----------------------|---------------------7--|
|-9-9---9-(9)-------7-|---------------------7-|------------------------|
|-------------7-8h9---|-9s7-5---------7-8h9---|-9s7-5---------7-8h9----|
|---------------------|-------7-7-(7)---------|-------7-7-(7)----------|


  Gtr II
        ~~~~~~                ~~~~~~                  ~~~~~~
                |-3-|                 |-3-|   |-3-|           |-3-|
  E E E E +E  E E E E   E E E E +E  E E E E   E E E E E +E  E E E E
|---------------------|---------------------|-----------------------|
|---------------------|---------------------|-----------------------|
|-------------------7-|---------------------|-----------------------|
|-9-9---9-(9)---------|-9-9---9-(9)-------7-|---------------------7-|
|-------------7-8h9---|-------------7-8h9---|-9s7-5---------7-8h9---|
|---------------------|---------------------|-------7-7-(7)---------|
|
| Gtr I
|       ~~~~~~                ~~~~~~                  ~~~~~~
|               |-3-|                 |-3-|   |-3-|           |-3-|
| E E E E +E  E E E E   E E E E +E  E E E E   E E E E E +E  E E E E
|---------------------|---------------------|-----------------------|
|---------------------|---------------------|-----------------------|
|---------------------|---------------------|-----------------------|
|-9-9---9-(9)-------7-|-9-9---9-(9)-------7-|---------------------7-|
|-------------7-8h9---|-------------7-8h9---|-9s7-5---------7-8h9---|
|---------------------|---------------------|-------7-7-(7)---------|


          ~~~~~~            ~~~
  |-3-|           |--3--|                  |--3---|
  E E E E E +E  E E E   E   H.             E E    E
|-------------------------|---------------------------|
|-------------------------|---------------------------|
|-------------------------|---------------------------|
|-------------------------|---------------------------|
|-9s7-5-----------5-----5-|-7b9------------7-7----7b9r|
|-------7-7-(7)-7---7-----|---------------------------|
|
|         ~~~~~~
| |-3-|
| E E E E E +E  E E   E     Q    E E +E  E E   E
|-------------------------|---------------------------|
|-------------------------|---------------------------|
|-------------------------|---------------------------|
|-------------------------|--------------9------------|
|-9s7-5---------5-7---5---|--------9-(9)--------------|
|-------7-7-(7)-----------|-7----7---------7---7/-----|


                                      ~~~~~~~
  +E  E E  E   E   Q    E     E E  E  E  +Q      E  E
|--------------------------|----------------------------|
|--------------------------|----------------------------|
|--------------------------|----7-----------------------|
|--------------------------|-------9--9--(9)-----9--7---|
|-(7)-5-7--5---7---5----7/-|--9-------------------------|
|--------------------------|----------------------------|
|
|  Q    E  E  +E   E E  E     Q    E  E  +E   E  E  E
|--------------------------|----------------------------|
|--------------------------|----------------------------|
|--------------------------|----------------------------|
|-----------------11---11/-|-12--------------12---------|
|---------11-(11)----------|---------12-(12)------------|
|--9----9------------9--9/-|-10---10------------10-10/--|


   E  Q         +E     E   E +E    E    Q  E E  E  E E E
|-------------------------------------|-------------------|
|-----7b7.5=====(7)r------------------|-------------------|
|-----7b7.5=====(7)r------------------|-------------------|
|--9-------------------9---7-(7)------|-------------------|
|----------------------------------7/-|-9--7s5--7--5-7-9-|
|-------------------------------------|-------------------|
|
|  E  E       E  E    +E   Q      +E    Q  E E +E  E E E
|-------------------------------------|-------------------|
|-------------------------------------|-------------------|
|-------------------------------------|-------------------|
|----14---------14---(14)-14-----(14)-|------9-(9)-9---9/-|
|---------------14---(14)-14-----(14)-|------9-(9)--------|
|-12---------12-12---(12)-12-----(12)-|-7--7---------7-7/-|


                  ~~~~~~~~~~
               |--3--|
   Q    E  E   E  E +E  +E   E     E E  E  E   E   E  E  E
|-------------------------------|-----------------10---------|
|-------------------------------|--------------------12-12---|
|-------------------------------|----7-----4s=11-------------|
|-------------------------------|-------9--------------------|
|--7----7--5---7--5-(5)-(5)--7/-|--9-------------------------|
|-------------------------------|----------------------------|
|
|  E  E E  E  +Q         E   E     Q    E  E  +E   E  E  E
|-------------------------------|----------------------------|
|-------------------------------|----------------------------|
|-------------------------------|----------------------------|
|-11-11---11-(11)-----------11--|-12------12-(12)-12---------|
|---------11-(11)---------------|---------12-(12)------------|
|--9----9----------------9---9--|-10---10------------10-10/--|


                                                ~~~~~~~
   |---3----|
   E  E     E E  E    +E +E    Q        E  E E  E  +H
|------------------------------------|-----------------------|
|-12p10------------------------------|-10-12---12-(12)-------|
|----------11-9--7b8==(7)(7)r--------|-----------------------|
|------------------------------9----|-----------------------|
|------------------------------------|-----------------------|
|------------------------------------|-----------------------|
|
|  E     Q       E     E  E    E   E    E  E E  E  +E  E E E
|------------------------------------|-----------------------|
|------------------------------------|-----------------------|
|------------------------------------|-----------------------|
|-------14------14----11s16s==14--14-|-----------------------|
|---------------14----11s16s==14--14-|--7--9----9--(9)-9-9-9-|
|-12---------------------------------|--7--7----7--(7)-7-7-7-|


           ~~~~~~~
                           |-----3-----|
   E  E E  E  +H           Q     Q     Q     +Q    E   E
|-----------------------|--------------------------------|
|-10-12---12-(12)-------|--------------------------------|
|-----------------------|-11b14-11b14-11b14r(11)---9-----|
|-----------------------|--------------------------------|
|-----------------------|--------------------------------|
|-----------------------|--------------------------------|
|
|                          |-----3-----|      |--3---|
|  E  E E  E  +E  E E E    Q     Q     Q      Q  Q   Q
|-----------------------|--------------------------------|
|-----------------------|--------------------------------|
|-----------------------|--------------------------------|
|-----------------------|--------------------------------|
|--7--9----9--(9)-9-9-9-|--7-----6-----7------6--4---2---|
|--7--7----7--(7)-7-7-7-|--5-----4-----5------4--2---0---|


                 ~~~~~~                  ~~~~~~~
  |----3-----|                                      |---3---|
  E    +E    E E E +Q.     E     E  E E  E  +E   E  E  E    E
|-----------------------------|-------------------------------|
|-----------------------------|-10-12---12-(12)-12-12p10------|
|-9b11r(9)---7----------------|----------------------------11-|
|--------------9-9-(9)-----9/-|-------------------------------|
|-----------------------------|-------------------------------|
|-----------------------------|-------------------------------|
|
| E        E   E E +E  E E E     E  E E  E  +E   E  E    E
|-----------------------------|-------------------------------|
|-----------------------------|-------------------------------|
|-----------------------------|-------------------------------|
|-----------------------------|-------------------------------|
|-7--------9-----9-(9)-9-7-7--|--7--9----9--(9)--9--9----9----|
|-7--------7-----7-(7)-7-7-7--|--7--7----7--(7)--7--7----7----|


           ~~~~~~~
                           |-----3-----|
   E  E E  E  +H           Q     Q     Q     +Q    E   E
|-----------------------|--------------------------------|
|-10-12---12-(12)-------|--------------------------------|
|-----------------------|-11b14-11b14-11b14r(11)---9-----|
|-----------------------|--------------------------------|
|-----------------------|--------------------------------|
|-----------------------|--------------------------------|
|
|                          |-----3-----|      |--3---|
|  E  E E  E  +E  E E E    Q     Q     Q      Q  Q   Q
|-----------------------|--------------------------------|
|-----------------------|--------------------------------|
|-----------------------|--------------------------------|
|-----------------------|--------------------------------|
|--7--9----9--(9)-9-9-9-|--7-----6-----7------6--4---2---|
|--7--7----7--(7)-7-7-7-|--5-----4-----5------4--2---0---|


                 ~~~~~~
  |----3-----|
  E    +E    E E E +Q.     E    E E E E +E  E E E
|-----------------------------|-------------------|
|-----------------------------|-------------------|
|-9b11r(9)---7----------------|-------------------|
|--------------9-9-(9)-----9/-|-------------------|
|-----------------------------|-7-9---9-(9)-9-9-9-|
|-----------------------------|-7-7---7-(7)-7-7-7-|
|
| E        E   E E +E  E E E    E E E E +E  E E E
|-----------------------------|-------------------|
|-----------------------------|-------------------|
|-----------------------------|-------------------|
|-----------------------------|-------------------|
|-7--------9-----9-(9)-9-7-7--|-7-9---9-(9)-9-9-9-|
|-7--------7-----7-(7)-7-7-7--|-7-7---7-(7)-7-7-7-|


  E E E E +E  E E E   E E E E +E  E E E
|-------------------|-------------------|
|-------------------|-------------------|
|-------------------|-------------------|
|-------------------|-------------------|
|-7-9---9-(9)-9-9-9-|-7-7---7-(7)-7-7-7-|
|-7-7---7-(7)-7-7-7-|-5-5---5-(5)-5-5-5-|
|
| E E E E +E  E E E   E E E E +E  E E E
|-------------------|-------------------|
|-------------------|-------------------|
|-------------------|-------------------|
|-------------------|-------------------|
|-7-9---9-(9)-9-9-9-|-7-7---7-(7)-7-7-7-|
|-7-7---7-(7)-7-7-7-|-5-5---5-(5)-5-5-5-|


  Gtrs I, II
  E E E E +E  E E E   E E E E +E  E E E
|-------------------|-------------------|
|-------------------|-------------------|
|-------------------|-------------------|
|-------------------|-------------------|
|-9-9---9-(9)-9-7-7-|-7-9---9-(9)-9-9-9-|
|-7-7---7-(7)-7-7-7-|-7-7---7-(7)-7-7-7-|


                      Gtr II
  E E E E +E  E E E   E E E E +E  E E E
|-------------------|-------------------|
|-------------------|-------------------|
|-------------------|-------------------|
|-------------------|-------------------|
|-7-9---9-(9)-9-9-9-|-7-7---7-(7)-7-7-7-|
|-7-7---7-(7)-7-7-7-|-5-5---5-(5)-5-5-5-|


  E E E E +E  E Q     H    H      +W                H    H
|-------------------|------0----|-(0)-------------|------2----|
|-------------------|------0----|-(0)-------------|------2----|
|-------------------|-----------|-----------------|-----------|
|-------------------|-----------|-----------------|-----------|
|-9-9---9-(9)-9-9--|-----------|-----------------|-----------|
|-7-7---7-(7)-7-7--|-0---------|-----------------|-2---------|
|
| Gtr I
| W                   H    H      +H     +Q   E E   H    H
|-------------------|-----------|-----------------|-----------|
|-------------------|-----------|-----------------|-----------|
|-------------------|-----------|-----------------|-----------|
|-------------------|-2----2----|-(2)----(2)--2-2-|-4----4----|
|-------------------|-2----2----|-(2)----(2)--2-2-|-4----4----|
|-------------------|-0----0----|-(0)----(0)--0-0-|-2----2----|


                              ~~~~~~~
  +H.           Q     E  E E  E  +H
|-(2)--------------|-----------------------|
|-(2)--------------|-10-12---12-(12)-------|
|------------------|-----------------------|
|------------------|-----------------------|
|------------------|-----------------------|
|------------------|-----------------------|
|
|  Q   Q  E  Q.       E  E E  E  +E  E E E
|------------------|-----------------------|
|------------------|-----------------------|
|------------------|-----------------------|
|--4---4--4--------|-----------------------|
|--4---4--4--------|--7--9----9--(9)-9-9-9-|
|--2---2--2-14----|--7--7----7--(7)-7-7-7-|


           ~~~~~~~
                           |-----3-----|
   E  E E  E  +H           Q     Q     Q     +Q    E   E
|-----------------------|--------------------------------|
|-10-12---12-(12)-------|--------------------------------|
|-----------------------|-11b14-11b14-11b14r(11)---9-----|
|-----------------------|--------------------------------|
|-----------------------|--------------------------------|
|-----------------------|--------------------------------|
|
|                          |-----3-----|      |--3---|
|  E  E E  E  +E  E E E    Q     Q     Q      Q  Q   Q
|-----------------------|--------------------------------|
|-----------------------|--------------------------------|
|-----------------------|--------------------------------|
|-----------------------|--------------------------------|
|--7--9----9--(9)-9-9-9-|--7-----6-----7------6--4---2---|
|--7--7----7--(7)-7-7-7-|--5-----4-----5------4--2---0---|


                 ~~~~~~
  |----3-----|
  E    +E    E E E +Q.      E    H    H      +W                     H    H
|------------------------------|------0----|-(0)------------------|------2----|
|------------------------------|------0----|-(0)------------------|------2----|
|-9b11r(9)---7-----------------|-----------|----------------------|-----------|
|--------------9-9-(9)------9-|-----------|----------------------|-----------|
|------------------------------|-----------|----------------------|-----------|
|------------------------------|-0---------|----------------------|-2---------|
|
| E        E   E E +E  E  Q      H    H       E  E E E +E  Q  +E    H    H
|------------------------------|-----------|----------------------|-----------|
|------------------------------|-----------|----------------------|-----------|
|------------------------------|-----------|--9--9-7-9-(9)-9--(9)-|-----------|
|------------------------------|-2----2----|----------------------|-4----4----|
|-7--------9-----9-(9)-9-------|-2----2----|--7--7-5-7-(7)-7--(7)-|-4----4----|
|-7--------7-----7-(7)-7-10----|-0----0----|----------------------|-2----2----|


                                       ~~~~~~~
  +H.                Q         E  E E  E  +H
|-(2)-----------------------|-----------------------|
|-(2)-----------------------|-14-15---15-(15)-------|
|---------------------------|-----------------------|
|---------------------------|-----------------------|
|---------------------------|-----------------------|
|---------------------------|-----------------------|
|
|  E   E  E  E  E  Q    +E     E  E E  E  +E  E E E
|---------------------------|-----------------------|
|---------------------------|-----------------------|
|-11--11-11-11-14-16---(16)-|-----------------------|
|---------------------------|-----------------------|
|--9---9--9--9-12-14---(14)-|--7--9----9--(9)-9-9-9-|
|---------------------------|--7--7----7--(7)-7-7-7-|


           ~~~~~~~
   E  E E  E  +H          W
|-----------------------|---------------|
|-14-15---15-(15)-------|---------------|
|-----------------------|---------------|
|-----------------------|---------------|
|-----------------------|---------------|
|-----------------------|---------------|
|
|                         |-3-| |-3-|
|  E  E E  E  +E  E E E   Q Q Q Q Q Q
|-----------------------|---------------|
|-----------------------|---------------|
|-----------------------|---------------|
|-----------------------|---------------|
|--7--9----9--(9)-9-9-9-|-7-6-7-6-4-2---|
|--7--7----7--(7)-7-7-7-|-5-4-5-4-2-0---|


                         ~~~                 ~~~~~~~
   |-----3------|
   E     +E     E  E  E  H           E  E E  E  +E   E  E  E
|---------------------------------|--------------------------|
|-17b19r(17)---15-----------------|-14-15---15-(15)-15p14----|
|-----------------16-16-16--------|-----------------------16-|
|---------------------------------|--------------------------|
|---------------------------------|--------------------------|
|---------------------------------|--------------------------|
|
|  E         E     E  E +E  E E E    E  E E  E  +E   E  E  E
|---------------------------------|--------------------------|
|---------------------------------|--------------------------|
|---------------------------------|--------------------------|
|---------------------------------|--------------------------|
|--7---------9--------9-(9)-9-7-7-|--7--9----9--(9)--9--9--9-|
|--7---------7--------7-(7)-7-7-7-|--7--7----7--(7)--7--7--7-|


   E  E E  E  +H          W
|-----------------------|---------------|
|-14-15---15-(15)-------|---------------|
|-----------------------|---------------|
|-----------------------|---------------|
|-----------------------|---------------|
|-----------------------|---------------|
|
|                         |-3-| |-3-|
|  E  E E  E  +E  E E E   Q Q Q Q Q Q
|-----------------------|---------------|
|-----------------------|---------------|
|-----------------------|---------------|
|-----------------------|---------------|
|--7--9----9--(9)-9-9-9-|-7-6-7-6-4-2---|
|--7--7----7--(7)-7-7-7-|-5-4-5-4-2-0---|


                      ~~~~~~~
   |-----3------|
   E     +E     E  E  E  +Q.      E    E E E E +E  E E E
|------------------------------------|-------------------|
|-17b19r(17)---15--------------------|-------------------|
|-----------------16-16-(16)-----16-|-------------------|
|------------------------------------|-------------------|
|------------------------------------|-7-9---9-(9)-9-9-9-|
|------------------------------------|-7-7---7-(7)-7-7-7-|
|
|  E         E     E  E  +E  E E  E    E E E E +E  E E E
|------------------------------------|-------------------|
|------------------------------------|-------------------|
|------------------------------------|-------------------|
|------------------------------------|-------------------|
|--7---------9--------9--(9)-9-7--7--|-7-9---9-(9)-9-9-9-|
|--7---------7--------7--(7)-7-7--7--|-7-7---7-(7)-7-7-7-|


  E E E E +E  E E E   E E E E +E  E E E
|-------------------|-------------------|
|-------------------|-------------------|
|-------------------|-------------------|
|-------------------|-------------------|
|-7-9---9-(9)-9-9-9-|-7-7---7-(7)-7-7-7-|
|-7-7---7-(7)-7-7-7-|-5-5---5-(5)-5-5-5-|
|
| E E E E +E  E E E   E E E E +E  E E E
|-------------------|-------------------|
|-------------------|-------------------|
|-------------------|-------------------|
|-------------------|-------------------|
|-7-9---9-(9)-9-9-9-|-7-7---7-(7)-7-7-7-|
|-7-7---7-(7)-7-7-7-|-5-5---5-(5)-5-5-5-|


  Gtrs I, II
  E E E E +E  E E E   E E E E +E  E E E
|-------------------|-------------------|
|-------------------|-------------------|
|-------------------|-------------------|
|-------------------|-------------------|
|-9-9---9-(9)-9-7-7-|-7-9---9-(9)-9-9-9-|
|-7-7---7-(7)-7-7-7-|-7-7---7-(7)-7-7-7-|


                      Gtr II
  E E E E +E  E E E   E E E E +E  E E E
|-------------------|-------------------|
|-------------------|-------------------|
|-------------------|-------------------|
|-------------------|-------------------|
|-7-9---9-(9)-9-9-9-|-7-7---7-(7)-7-7-7-|
|-7-7---7-(7)-7-7-7-|-5-5---5-(5)-5-5-5-|


  E E E E +E  E Q     H    H      +W                H    H
|-------------------|------0----|-(0)-------------|------2----|
|-------------------|------0----|-(0)-------------|------2----|
|-------------------|-----------|-----------------|-----------|
|-------------------|-----------|-----------------|-----------|
|-9-9---9-(9)-9-9--|-----------|-----------------|-----------|
|-7-7---7-(7)-7-7--|-0---------|-----------------|-2---------|
|
| Gtr I
| W                   H    H      +H     +Q   E E   H    H
|-------------------|-----------|-----------------|-----------|
|-------------------|-----------|-----------------|-----------|
|-------------------|-----------|-----------------|-----------|
|-------------------|-2----2----|-(2)----(2)--2-2-|-4----4----|
|-------------------|-2----2----|-(2)----(2)--2-2-|-4----4----|
|-------------------|-0----0----|-(0)----(0)--0-0-|-2----2----|


                              ~~~~~~~
  +H.           Q     E  E E  E  +H
|-(2)--------------|-----------------------|
|-(2)--------------|-10-12---12-(12)-------|
|------------------|-----------------------|
|------------------|-----------------------|
|------------------|-----------------------|
|------------------|-----------------------|
|
|  Q   Q  E  Q.       E  E E  E  +E  E E E
|------------------|-----------------------|
|------------------|-----------------------|
|------------------|-----------------------|
|--4---4--4--------|-----------------------|
|--4---4--4--------|--7--9----9--(9)-9-9-9-|
|--2---2--2-14----|--7--7----7--(7)-7-7-7-|


           ~~~~~~~
                           |-----3-----|
   E  E E  E  +H           Q     Q     Q     +Q    E   E
|-----------------------|--------------------------------|
|-10-12---12-(12)-------|--------------------------------|
|-----------------------|-11b14-11b14-11b14r(11)---9-----|
|-----------------------|--------------------------------|
|-----------------------|--------------------------------|
|-----------------------|--------------------------------|
|
|                          |-----3-----|      |--3---|
|  E  E E  E  +E  E E E    Q     Q     Q      Q  Q   Q
|-----------------------|--------------------------------|
|-----------------------|--------------------------------|
|-----------------------|--------------------------------|
|-----------------------|--------------------------------|
|--7--9----9--(9)-9-9-9-|--7-----6-----7------6--4---2---|
|--7--7----7--(7)-7-7-7-|--5-----4-----5------4--2---0---|


                 ~~~~~~
  |----3-----|
  E    +E    E E E +Q.      E    H    H      +W                     H    H
|------------------------------|------0----|-(0)------------------|------2----|
|------------------------------|------0----|-(0)------------------|------2----|
|-9b11r(9)---7-----------------|-----------|----------------------|-----------|
|--------------9-9-(9)------9-|-----------|----------------------|-----------|
|------------------------------|-----------|----------------------|-----------|
|------------------------------|-0---------|----------------------|-2---------|
|
| E        E   E E +E  E  Q      H    H       E  E E E +E  Q  +E    H    H
|------------------------------|-----------|----------------------|-----------|
|------------------------------|-----------|----------------------|-----------|
|------------------------------|-----------|--9--9-7-9-(9)-9--(9)-|-----------|
|------------------------------|-2----2----|----------------------|-4----4----|
|-7--------9-----9-(9)-9-------|-2----2----|--7--7-5-7-(7)-7--(7)-|-4----4----|
|-7--------7-----7-(7)-7-10----|-0----0----|----------------------|-2----2----|


   W                   W                 +W                  +W
|--------------------|-----------------|-------------------|------------------|
|--------------------|-----------------|-------------------|------------------|
|--------------------|-----------------|-------------------|------------------|
|--------------------|-4---------------|-(4)---------------|-(4)--------------|
|--------------------|-2---------------|-(2)---------------|-(2)--------------|
|--------------------|-----------------|-------------------|------------------|
|
|  E  E E E E Q  +E    Q.   E +E  E Q     E  E E E E E E E    Q.   E +E  E Q
|--------------------|-----------------|-------------------|------------------|
|--------------------|------------3p0--|---------3p0-------|-------------3p0--|
|-11-11-9-9-7-9--(9)-|------4-(4)------|--4----4-----------|-------4-(4)------|
|--------------------|-----------------|-----4-------------|------------------|
|--9--9-7-7-5-7--(7)-|-2---------------|---------------0-1-|--2---------------|
|--------------------|-----------------|-------------2-----|------------------|


  +W                  Q.   E +Q    Q    +E  Q.     Q   Q     Q.   E +Q    Q
|-------------------|-----------------|--------------------|-----------------|
|-------------------|-4----2-(2)------|--------------------|-----------------|
|-------------------|-----------------|--------------------|-4----2-(2)------|
|-(4)---------------|--------------4--|-(4)-2--------------|--------------4--|
|-(2)---------------|-----------------|------------5---4---|-----------------|
|-------------------|-----------------|--------------------|-----------------|
|
|  E  E E E E E E E   Q.   E +E  E Q     E  E  E E E E E E   Q.   E +E  E Q
|-------------------|-----------------|--------------------|-----------------|
|---------3p0-------|------------3p0--|----------3p0-------|------------3p0--|
|--4----4-----------|------4-(4)------|--4-----4-----------|------4-(4)------|
|-----4-------------|-----------------|-----4--------------|-----------------|
|---------------0-1-|-2---------------|----------------0-1-|-2---------------|
|-------------2-----|-----------------|--------------2-----|-----------------|


  +E  Q.     Q   Q     W                 +H        E E E E   W
|--------------------|-----------------|-------------------|-----------------|
|--------------------|-----------------|---------------3p2-|-----------------|
|--------------------|-----------------|-----------2p1-----|-4---------------|
|-(4)-2--------------|-----------------|-------------------|-----------------|
|------------5---4---|-2---------------|-(2)---------------|-----------------|
|--------------------|-----------------|-------------------|-----------------|
|
|  E  E  E E E E E E   Q.   E +E  E Q     E  E E E E E E E   Q.   E +E  E Q
|--------------------|-----------------|-------------------|-----------------|
|----------3p0-------|------------3p0--|---------3p0-------|------------3p0--|
|--4-----4-----------|------4-(4)------|--4----4-----------|------4-(4)------|
|-----4--------------|-----------------|-----4-------------|-----------------|
|----------------0-1-|-2---------------|---------------0-1-|-2---------------|
|--------------2-----|-----------------|-------------2-----|-----------------|


  +W                  Q.   E +Q    Q    +E  Q.     Q   Q     Q.   E +Q    Q
|-------------------|-----------------|--------------------|-----------------|
|-------------------|-----------------|--------------------|-----------------|
|-(4)---------------|-4----2-(2)------|--------------------|-4----2-(2)------|
|-------------------|--------------4--|-(4)-2--------------|--------------4--|
|-------------------|-----------------|------------5---4---|-----------------|
|-------------------|-----------------|--------------------|-----------------|
|
|  E  E E E E E E E   Q.   E +E  E Q     E  E  E E E E E E   Q.   E +E  E Q
|-------------------|-----------------|--------------------|-----------------|
|---------3p0-------|------------3p0--|----------3p0-------|------------3p0--|
|--4----4-----------|------4-(4)------|--4-----4-----------|------4-(4)------|
|-----4-------------|-----------------|-----4--------------|-----------------|
|---------------0-1-|-2---------------|----------------0-1-|-2---------------|
|-------------2-----|-----------------|--------------2-----|-----------------|


  +E  Q.     Q   Q     W
|--------------------|-----------------|
|--------------------|-----------------|
|--------------------|-----------------|
|-(4)-2--------------|-----------------|
|------------5---4---|-2---------------|
|--------------------|-----------------|
|
|  E  E  E E E E E E   Q.   E +E  E Q
|--------------------|-----------------|
|----------3p0-------|------------3p0--|
|--4-----4-----------|------4-(4)------|
|-----4--------------|-----------------|
|----------------0-1-|-2---------------|
|--------------2-----|-----------------|


                           ~~
  +Q    Q    S  S  E E E   W
|------------------------|------------------|
|-----------12p10--------|------------------|
|-----------------11-9-7-|------------------|
|------------------------|-9----------------|
|-(2)--------------------|------------------|
|------------------------|------------------|
|
|  E  E E E  E     E E E   Q.   E +E  E Q
|------------------------|------------------|
|---------3p=0-----------|------------3p0---|
|--4----4----------------|------4-(4)-------|
|-----4------------------|------------------|
|--------------------0-1-|-2----------------|
|------------------2-----|------------------|


   ~~~~~~~~~~~~~~~~~
  +H.           +Q      Q.   E +Q   Q    +E  Q.   Q  Q    H    H
|---------------------|----------------|----------------|-----------|
|---------------------|----------------|----------------|-----------|
|---------------------|----------------|----------------|-----------|
|-(9)-----------(9)---|-4----2-(2)-----|----------7--6--|-4----2----|
|---------------------|-2----0-(0)--4--|-(4)-2----5--4--|-2----0----|
|---------------------|-------------2--|-(2)-0----------|-----------|
|
|  E  E E E E E  E  E   Q.   E +Q   Q    +E  Q.   Q  Q    H    H
|---------------------|----------------|----------------|-----------|
|---------3p0---------|----------------|----------------|-----------|
|--4----4-------------|----------------|----------------|-----------|
|-----4---------------|-4----2-(2)-----|----------7--6--|-4----2----|
|----------------0--1-|-2----0-(0)--4--|-(4)-2----5--4--|-2----0----|
|-------------2-------|-------------2--|-(2)-0----------|-----------|


  Gtrs I, II
                      ~~             ~~                              ~
  H    H        S S E E. S S S S S S E.   S S S S E S   +S  E. S S S E
|-----------||--------------------------|-------------------------------||
|-----------||o-------------------------|------------------------------o||
|-----------||--------------------------|-------------------------------||
|-----------||---------------------3-2--|-----------5b6r(5)------2h3-2--||
|-4----2----||o-3h5-5-5--5-3h5-3h5------|-3h5-5-5-5---------3----------o||
|-2----0----||--------------------------|----------------------5--------||


    Gtr II
          ~~
    S S E E. S S S S S S E.
||--------------------------|
||o-------------------------|
||--------------------------|
||---------------------7s5--|
||o-7h8-8-8--8-7h8-7h8------|
||--------------------------|
|
|   Gtr I
|         ~~             ~~
|   S S E E. S S S S S S E.
||--------------------------|
||o-------------------------|
||--------------------------|
||---------------------3-2--|
||o-3h5-5-5--5-3h5-3h5------|
||--------------------------|


                     ~~       ~
  S S S S  E S   +S  E. S S S E     H       H
|--------------------------------||-------------------|
|-------------------------------o||-------------------|
|--------------------------------||-------------------|
|------------7b8r(7)-------------||-7------10---------|
|-7h8-8-8--8---------7----7h8-7-o||-5-------8---------|
|-----------------------8--------||---------8---------|
|
|                             ~
| S S S E.   S   +S  E. S S S E     Q  E E  Q   E  E
|--------------------------------||-------------------|
|-------------------------------o||-------------------|
|--------------------------------||-------------------|
|------------5b6r(5)------2h3-2--||-7--7-7-10--10-10--|
|-3h5-5-5------------3----------o||-5--5-5--8---8--8--|
|-----------------------5--------||---------8---8--8--|


                              ~~
   H         H          S S E E. S S S S S S E.
|---------------------|-------------------------|
|---------------------|-------------------------|
|---------------------|-------------------------|
|-----------12--------|--------------------7s5--|
|-10--------10--------|-7h8-8-8--8-7h8-7h8------|
|--8--------10--------|-------------------------|
|
|                             ~~             ~~
|  Q   E  E  Q   E  E   S S E E. S S S S S S E.
|---------------------|-------------------------|
|---------------------|-------------------------|
|---------------------|-------------------------|
|-----------12--12-12-|--------------------3-2--|
|-10--10-10-12--12-12-|-3h5-5-5--5-3h5-3h5------|
|--8---8--8-10--10-10-|-------------------------|


                     ~~       ~
  S S S S  E S   +S  E. S S S E
|-------------------------------|
|-------------------------------|
|-------------------------------|
|------------7b8r(7)------------|
|-7h8-8-8--8---------7----7h8-7-|
|-----------------------8-------|
|
|                             ~
| S S S E.   S   +S  E. S S S E
|-------------------------------|
|-------------------------------|
|-------------------------------|
|------------5b6r(5)------2h3-2-|
|-3h5-5-5------------3----------|
|-----------------------5-------|


  H       H           H         H          H      H        H      H
|------------------|---------------------|---------------|---------------|
|------------------|---------------------|---------------|---------------|
|------------------|---------------------|---------------|---------------|
|-7------10--------|-----------12--------|---------------|---------------|
|-5-------8--------|-10--------10--------|-8------7------|-3------5------|
|---------8--------|--8--------10--------|-6------5------|-1------3------|
|
| Q  E E  Q   E  E    Q   E  E  Q   E  E   Q  E E Q  E E   Q  E E Q  E E
|------------------|---------------------|---------------|---------------|
|------------------|---------------------|---------------|---------------|
|------------------|---------------------|---------------|---------------|
|-7--7-7-10--10-10-|-----------12--12-12-|---------------|---------------|
|-5--5-5--8---8--8-|-10--10-10-12--12-12-|-8--8-8-7--7-7-|-3--3-3-5--5-5-|
|---------8---8--8-|--8---8--8-10--10-10-|-6--6-6-5--5-5-|-1--1-1-3--3-3-|


        ~~                                     ~~       ~
  S S E E. S S S S S S E.   S S S S  E S   +S  E. S S S E   H      H
|-------------------------|-------------------------------|---------------|
|-------------------------|-------------------------------|---------------|
|-------------------------|-------------------------------|---------------|
|--------------------7s5--|------------7b8r(7)------------|---------------|
|-7h8-8-8--8-7h8-7h8------|-7h8-8-8--8---------7----7h8-7-|-8------7------|
|-------------------------|-----------------------8-------|-6------5------|
|
|       ~~             ~~                               ~
| S S E E. S S S S S S E.   S S S E.   S   +S  E. S S S E   Q  E E Q  E E
|-------------------------|-------------------------------|---------------|
|-------------------------|-------------------------------|---------------|
|-------------------------|-------------------------------|---------------|
|--------------------3-2--|------------5b6r(5)------2h3-2-|---------------|
|-3h5-5-5--5-3h5-3h5------|-3h5-5-5------------3----------|-8--8-8-7--7-7-|
|-------------------------|-----------------------5-------|-6--6-6-5--5-5-|


  H      H        S S Q   S S S S S S S   S S S
|---------------|-------------------------------|
|---------------|-------------------------------|
|---------------|-------------------------------|
|---------------|---------------------3---------|
|-3------5------|-3-5---------3h5-3h5-----5-3---|
|-1------3------|-----------5-----------------5-|
|
| Q  E E Q  E E   S S E E S S S S S S S   S S S
|---------------|-------------------------------|
|---------------|-------------------------------|
|---------------|-------------------------------|
|---------------|---------------------3b4-------|
|-3--3-3-5--5-5-|-3-5---------3h5-3h5-----5-3---|
|-1--1-1-3--3-3-|-----------5-----------------5-|


  S S E  E  +E     S  S  S  S  E      +S   S
|--------------------------------------------|
|-------10-(10)---------------10b11==(10)r---|
|-------10-(10)---------------10b11==(10)r---|
|-------10-(10)------------------------------|
|-3-5--------------------------------------0-|
|------------------x--x--x--x----------------|
|
| S S E  E   S  S  S  S  S  S  E      +S   S
|--------------------------------------------|
|-----------------------------10b11==(10)r---|
|-----------------------------10b11==(10)r---|
|--------------------------------------------|
|-3-5--------------------------------------0-|
|---------------5s10-10-10-10----------------|


  S S Q   S S S S S S S   S S S   S S E  E  +E     S  S  S  S  E      +S   S
|-------------------------------|--------------------------------------------|
|-------------------------------|-------10-(10)---------------10b11==(10)r---|
|-------------------------------|-------10-(10)---------------10b11==(10)r---|
|---------------------3---------|-------10-(10)------------------------------|
|-3-5---------3h5-3h5-----5-3---|-3-5--------------------------------------0-|
|-----------5-----------------5-|------------------x--x--x--x----------------|
|
| S S E E S S S S S S S   S S S   S S E  E   S  S  S  S  S  S  E      +S   S
|-------------------------------|--------------------------------------------|
|-------------------------------|-----------------------------10b11==(10)r---|
|-------------------------------|-----------------------------10b11==(10)r---|
|---------------------3b4-------|--------------------------------------------|
|-3-5---------3h5-3h5-----5-3---|-3-5--------------------------------------0-|
|-----------5-----------------5-|---------------5s10-10-10-10----------------|


  S S Q   S S S S S S S   S S S
|-------------------------------|
|-------------------------------|
|-------------------------------|
|---------------------3---------|
|-3-5---------3h5-3h5-----5-3---|
|-----------5-----------------5-|
|
| S S E E S S S S S S S   S S S
|-------------------------------|
|-------------------------------|
|-------------------------------|
|---------------------3b4-------|
|-3-5---------3h5-3h5-----5-3---|
|-----------5-----------------5-|


  S S E  E  +E     S  S  S  S  E             +S   S
|---------------------------------------------------|
|-------10-(10)---------------10b11=========(10)r---|
|-------10-(10)---------------10b11=========(10)r---|
|-------10-(10)-------------------------------------|
|-3-5---------------------------------------------0-|
|------------------x--x--x--x-----------------------|
|
| S S E  E   S  S  S  S  S  S  S      S      +S   S
|-----------------------------10-----10b11==(10)r---|
|-----------------------------10-----10b11==(10)r---|
|-----------------------------10-----10b11==(10)r---|
|---------------------------------------------------|
|-3-5---------------------------------------------0-|
|---------------5s10-10-10-10-----------------------|


  S S Q   S S S S S S S   S S S
|-------------------------------|
|-------------------------------|
|-------------------------------|
|---------------------3---------|
|-3-5---------3h5-3h5-----5-3---|
|-----------5-----------------5-|
|
| S S E E S S S S S S S   S S S
|-------------------------------|
|-------------------------------|
|-------------------------------|
|---------------------3b4-------|
|-3-5---------3h5-3h5-----5-3---|
|-----------5-----------------5-|


  S S E  E  +E   S  S  S  S       E         +S   S
|--------------------------------------------------|
|-------10-(10)------------------10b11=====(10)r---|
|-------10-(10)------------------10b11=====(10)r---|
|-------10-(10)------------------------------------|
|-3-5--------------------------------------------0-|
|----------------x--x--x--x------------------------|
|
| S S E  Q       S  S  S  S      +S      S   S   S
|--------------------------------------------------|
|---------------------12-10b11==(10)r---12--10-----|
|---------------------12-10b11==(10)r---12--10-----|
|--------------------------------------------------|
|-3-5--------------------------------------------0-|
|---------------10-10------------------------------|


  S S Q  S S S S S S S   S S S   S S E  E  +E  S  S  S  S  E         +S   S
|------------------------------|--------------------------------------------|
|------------------------------|-------10-(10)------------10b11=====(10)r---|
|------------------------------|-------10-(10)------------10b11=====(10)r---|
|--------------------3---------|-------10-(10)------------------------------|
|-3-5--------3h5-3h5-----5-3---|-3-5--------------------------------------0-|
|----------5-----------------5-|---------------x--x--x--x-------------------|
|
| S S Q  S S S S S S S   S S S   S S E  E   E  S  S  S  S  S      S   E
|------------------------------|--------------------------------------------|
|------------------------------|--------------------------------------------|
|------------------------------|--------------------------------------------|
|--------------------3b4-------|--------------------------------------------|
|-3-5--------3h5-3h5-----5-3---|-3-5----------------------------------------|
|----------5-----------------5-|-------13s==1s10-10-10-10-10-----10--10----|


  S S Q  S S S S S S S   S S S
|------------------------------|
|------------------------------|
|------------------------------|
|--------------------3---------|
|-3-5--------3h5-3h5-----5-3---|
|----------5-----------------5-|
|
| S S Q  S S S S S S S   S S S
|------------------------------|
|------------------------------|
|------------------------------|
|--------------------3b4-------|
|-3-5--------3h5-3h5-----5-3---|
|----------5-----------------5-|


                                                    ~~~~~~~~  ~~~~~~~~~~~~~
  S   S E    E   +E     S  S S  S  S  S  +S  S   S  E.   E. S S    +E.  E. S
|----------------------------------------------|------------------------------|
|-----------10--(10)--------------10-10-(10)---|------------------------------|
|-----------10--(10)--------------10-10-(10)-0-|------------------------------|
|-----------10--(10)--------------10-10-(10)---|------------------------------|
|-3---5----------------------------------------|-5--5----3--3-----------------|
|-----------------------x--x-x--x--------------|--------------3b4==(3)r-1--1--|
|
|                                                ~~
| S   S S S  E    S  S  S  S S  S  S  S   E      E.    S E. S S    +E.  E. S
|----------------------------------------------|------------------------------|
|-------------------------10---10----10--------|------------------------------|
|-------------------------10---10----10--------|------------------------------|
|-3b4---------------------10---10----10--------|------------------------------|
|-----5---x--5--------------------------------|-5-----5-3--3-----------------|
|-----------------x--5s10----------------13---|--------------3b4==(3)r-1--1--|


  ~~~~~~~~        ~~~~~~~~~~~~~    ~~~~~       ~~~~~~~~~~~~
  Q    E. S S     S    +E   E. S   E  E   E. S S    +E.  E E
|--------------------------------|---------------------------|
|--------------------------------|---------------------------|
|--------------------------------|---------------------------|
|--------------------------------|---------------------------|
|-5----3--3----------------------|-5--5---7--7-7b8r=(7)--5-7-|
|-----------3-----3b4==(3)r-1--0-|---------------------------|
|
| ~~                               ~~
| E. S E. S S    +E.        E. S   E.   S E. S S    +E.  E E
|--------------------------------|---------------------------|
|--------------------------------|---------------------------|
|--------------------------------|---------------------------|
|--------------------------------|---------------------------|
|-5--5-3--3----------------------|-5----5-3--3---------------|
|-----------3b4==(3)r-------1--1-|-------------3b4==(3)r-1-3-|


                          |---3---| |--3--|
  E   S S S S S S S S S S S +S    S S S   S
|--------------------------------------------|
|--------------------------------------------|
|-----9-9-9-9-9-9-9-9-9-9-9-(9)-----------7--|
|--------------------------------------------|
|-7---7-7-7-7-7-7-7-7-7-7-7-(7)---7h8h9------|
|--------------------------------------------|
|
| S S S S S S S S S S S S S     E       S
|--------------------------------------------|
|--------------------------------------------|
|--------------------------------------------|
|--------------------------------------------|
|--------------------------------------------|
|-5-5-5-5-5-5-5-5-5-5-5-5-5------------------|


  Gtrs I, II
        ~~~~~~                ~~~~~~                  ~~~~~~
                |-3-|                 |-3-|   |-3-|           |-3-|
  E E E E +E  E E E E   E E E E +E  E E E E   E E E E E +E  E E E E
|---------------------|---------------------|-----------------------|
|---------------------|---------------------|-----------------------|
|-------------------7-|---------------------|-----------------------|
|-9-9---9-(9)---------|-9-9---9-(9)-------7-|---------------------7-|
|-------------7-8h9---|-------------7-8h9---|-9s7-5---------7-8h9---|
|---------------------|---------------------|-------7-7-(7)---------|


  Gtr II
          ~~~~~~                ~~~~~~                ~~~~~~
  |-3-|           |-3-|                 |-3-|                 |-3-|
  E E E E E +E  E E E E   E E E E +E  E E E E   E E E E +E  E E E E
|-----------------------|---------------------|---------------------|
|-----------------------|---------------------|---------------------|
|---------------------7-|-------------------7-|---------------------|
|-----------------------|-9-9---9-(9)---------|-9-9---9-(9)-------7-|
|-9s7-5---------7-8h9---|-------------7-8h9---|-------------7-8h9---|
|-------7-7-(7)---------|---------------------|---------------------|
|
| Gtr I
|         ~~~~~~                ~~~~~~                ~~~~~~
| |-3-|           |-3-|                 |-3-|                 |-3-|
| E E E E E +E  E E E E   E E E E +E  E E E E   E E E E +E  E E E E
|-----------------------|---------------------|---------------------|
|-----------------------|---------------------|---------------------|
|---------------------7-|---------------------|---------------------|
|-----------------------|-9-9---9-(9)-------7-|-9-9---9-(9)-------7-|
|-9s7-5---------7-8h9---|-------------7-8h9---|-------------7-8h9---|
|-------7-7-(7)---------|---------------------|---------------------|


  Gtrs I, II
          ~~~~~~
  |-3-|           |-3-|   |-3-|
  E E E E E +E  E E E E   E E E E E E Q   E
|-----------------------|-------------------|
|-----------------------|-------------------|
|-----------------------|-------------------|
|---------------------7-|-------------------|
|-9s7-5---------7-8h9---|-9s7-5---7s9-7-----|
|-------7-7-(7)---------|-------7-7------10-|


  E E E E +E  E E E   E E E E +E  E E E
|-------------------|--------------------|
|-------------------|--------------------|
|-------------------|--------------------|
|-------------------|--------------------|
|-7-9---9-(9)-9-9-9-|-7-9---9-(9)-9-9-9--|
|-7-7---7-(7)-7-7-7-|-7-7---7-(7)-7-7-7--|


  E E E E +E  E E E   E E E E +E  E E E
|-------------------|-------------------|
|-------------------|-------------------|
|-------------------|-------------------|
|-------------------|-------------------|
|-7-7---7-(7)-7-7-7-|-9-9---9-(9)-9-7-7-|
|-5-5---5-(5)-5-5-5-|-7-7---7-(7)-7-7-7-|


  E E E E +E  E E E   E E E E +E  E E E
|-------------------|-------------------|
|-------------------|-------------------|
|-------------------|-------------------|
|-------------------|-------------------|
|-7-9---9-(9)-9-9-9-|-7-9---9-(9)-9-9-9-|
|-7-7---7-(7)-7-7-7-|-7-7---7-(7)-7-7-7-|


  Gtr II
  E E E E +E  E E E   E E E E +E  E Q     H    H      +W
|-------------------|-------------------|------0----|-(0)-------------|
|-------------------|-------------------|------0----|-(0)-------------|
|-------------------|-------------------|-----------|-----------------|
|-------------------|-------------------|-----------|-----------------|
|-7-7---7-(7)-7-7-7-|-9-9---9-(9)-9-9--|-----------|-----------------|
|-5-5---5-(5)-5-5-5-|-7-7---7-(7)-7-7--|-0---------|-----------------|
|
| Gtr I
| W                   W                   H    H      +H     +Q   E E
|-------------------|-------------------|-----------|-----------------|
|-------------------|-------------------|-----------|-----------------|
|-------------------|-------------------|-----------|-----------------|
|-------------------|-------------------|-2----2----|-(2)----(2)--2-2-|
|-------------------|-------------------|-2----2----|-(2)----(2)--2-2-|
|-------------------|-------------------|-0----0----|-(0)----(0)--0-0-|


                                          ~~~~~~~                 ~~~~~~~
  H    H      +H.           Q     E  E E  E  +H           E  E E  E  +H
|------2----|-(2)--------------|-----------------------|-----------------------|
|------2----|-(2)--------------|-10-12---12-(12)-------|-10-12---12-(12)-------|
|-----------|------------------|-----------------------|-----------------------|
|-----------|------------------|-----------------------|-----------------------|
|-----------|------------------|-----------------------|-----------------------|
|-2---------|------------------|-----------------------|-----------------------|
|
| H    H       Q   Q  E  Q.       E  E E  E  +E  E E E    E  E E  E  +E  E E E
|-----------|------------------|-----------------------|-----------------------|
|-----------|------------------|-----------------------|-----------------------|
|-----------|------------------|-----------------------|-----------------------|
|-4----4----|--4---4--4--------|-----------------------|-----------------------|
|-4----4----|--4---4--4--------|--7--9----9--(9)-9-9-9-|--7--9----9--(9)-9-9-9-|
|-2----2----|--2---2--2-14----|--7--7----7--(7)-7-7-7-|--7--7----7--(7)-7-7-7-|


                                                  ~~~~~~
   |-----3-----|                   |----3-----|
   Q     Q     Q     +Q    E   E   E    +E    E E E +Q.      E
|--------------------------------|------------------------------|
|--------------------------------|------------------------------|
|-11b14-11b14-11b14r(11)---9-----|-9b11r(9)---7-----------------|
|--------------------------------|--------------9-9-(9)------9-|
|--------------------------------|------------------------------|
|--------------------------------|------------------------------|
|
|  |-----3-----|      |--3---|
|  Q     Q     Q      Q  Q   Q     E        E   E E +E  E  Q
|--------------------------------|------------------------------|
|--------------------------------|------------------------------|
|--------------------------------|------------------------------|
|--------------------------------|------------------------------|
|--7-----6-----7------6--4---2---|-7--------9-----9-(9)-9-------|
|--5-----4-----5------4--2---0---|-7--------7-----7-(7)-7-10----|


  H    H      +W
|------0----|-(0)------------------|
|------0----|-(0)------------------|
|-----------|----------------------|
|-----------|----------------------|
|-----------|----------------------|
|-0---------|----------------------|
|
| H    H       E  E E E +E  Q  +E
|-----------|----------------------|
|-----------|----------------------|
|-----------|--9--9-7-9-(9)-9--(9)-|
|-2----2----|----------------------|
|-2----2----|--7--7-5-7-(7)-7--(7)-|
|-0----0----|----------------------|


  H    H      +H.                Q
|------2----|-(2)-----------------------|
|------2----|-(2)-----------------------|
|-----------|---------------------------|
|-----------|---------------------------|
|-----------|---------------------------|
|-2---------|---------------------------|
|
| H    H       E   E  E  E  E  Q    +E
|-----------|---------------------------|
|-----------|---------------------------|
|-----------|-11--11-11-11-14-16---(16)-|
|-4----4----|---------------------------|
|-4----4----|--9---9--9--9-12-14---(14)-|
|-2----2----|---------------------------|


           ~~~~~~~                 ~~~~~~~
   E  E E  E  +H           E  E E  E  +H
|-----------------------|-----------------------|
|-10-12---12-(12)-------|-10-12---12-(12)-------|
|-----------------------|-----------------------|
|-----------------------|-----------------------|
|-----------------------|-----------------------|
|-----------------------|-----------------------|
|
|  E  E E  E  +E  E E E    E  E E  E  +E  E E E
|-----------------------|-----------------------|
|-----------------------|-----------------------|
|-----------------------|-----------------------|
|-----------------------|-----------------------|
|--7--9----9--(9)-9-9-9-|--7--9----9--(9)-9-9-9-|
|--7--7----7--(7)-7-7-7-|--7--7----7--(7)-7-7-7-|


                                                  ~~~~~~
   |-----3-----|                   |----3-----|
   Q     Q     Q     +Q    E   E   E    +E    E E E +Q.     E
|--------------------------------|-----------------------------|
|--------------------------------|-----------------------------|
|-11b14-11b14-11b14r(11)---9-----|-9b11r(9)---7----------------|
|--------------------------------|--------------9-9-(9)-----9/-|
|--------------------------------|-----------------------------|
|--------------------------------|-----------------------------|
|
|  |-----3-----|      |--3---|
|  Q     Q     Q      Q  Q   Q     E        E   E E +E  E E E
|--------------------------------|-----------------------------|
|--------------------------------|-----------------------------|
|--------------------------------|-----------------------------|
|--------------------------------|-----------------------------|
|--7-----6-----7------6--4---2---|-7--------9-----9-(9)-9-7-7--|
|--5-----4-----5------4--2---0---|-7--------7-----7-(7)-7-7-7--|


           ~~~~~~~                         ~~~~~~~
                      |---3---|
   E  E E  E  +E   E  E  E    E    E  E E  E  +H
|-------------------------------|-----------------------|
|-10-12---12-(12)-12-12p10------|-10-12---12-(12)-------|
|----------------------------11-|-----------------------|
|-------------------------------|-----------------------|
|-------------------------------|-----------------------|
|-------------------------------|-----------------------|
|
|  E  E E  E  +E   E  E    E       E  E E  E  +E  E E E
|-------------------------------|-----------------------|
|-------------------------------|-----------------------|
|-------------------------------|-----------------------|
|-------------------------------|-----------------------|
|--7--9----9--(9)--9--9----9----|--7--9----9--(9)-9-9-9-|
|--7--7----7--(7)--7--7----7----|--7--7----7--(7)-7-7-7-|


                                                  ~~~~~~
   |-----3-----|                   |----3-----|
   Q     Q     Q     +Q    E   E   E    +E    E E E +Q.     E
|--------------------------------|-----------------------------|
|--------------------------------|-----------------------------|
|-11b14-11b14-11b14r(11)---9-----|-9b11r(9)---7----------------|
|--------------------------------|--------------9-9-(9)-----9/-|
|--------------------------------|-----------------------------|
|--------------------------------|-----------------------------|
|
|  |-----3-----|      |--3---|
|  Q     Q     Q      Q  Q   Q     E        E   E E +E  E E E
|--------------------------------|-----------------------------|
|--------------------------------|-----------------------------|
|--------------------------------|-----------------------------|
|--------------------------------|-----------------------------|
|--7-----6-----7------6--4---2---|-7--------9-----9-(9)-9-7-7--|
|--5-----4-----5------4--2---0---|-7--------7-----7-(7)-7-7-7--|


            ~~~~~~~
                       |--3--|
   E  E  E  E  +E   E  E  E  E    E  E E  E  +Q.   E
|------------------------------|----------------------|
|-10-12----12-(12)-12-12p10----|-10-12---12-(12)---0--|
|---------------------------11-|----------------------|
|------------------------------|----------------------|
|------------------------------|----------------------|
|------------------------------|----------------------|
|
|  E +E  H             Q          W
|------------------------------|----------------------|
|------------------------------|----------------------|
|------------------------------|----------------------|
|------------------------------|----------------------|
|--8-(8)-----------------------|----------------------|
|--6-(6)-----------------------|----------------------|


   |-----3-----|                 |---3----|     |-3--|
   Q     Q     Q     +E  E E E   E    +E  E E E E E +E  +Q     +W
|------------------------------|-----------------------------|--------*|
|------------------------------|-----------------------------|--------*|
|-11b14-11b14-11b14r(11)-9s7-9-|-9b12r(9)-7------------------|--------*|
|------------------------------|------------9-9---9-(9)-(9)--|-(9)----*|
|------------------------------|-----------------------------|--------*|
|------------------------------|----------------7------------|--------*|


Duration Legend
---------------
W - whole; H - half; Q - quarter; E - 8th; S - 16th; T - 32nd; X - 64th; a - acciaccatura
+ - note tied to previous; . - note dotted; .. - note double dotted
Uncapitalized letters represent notes that are staccato (1/2 duration)
Irregular groupings are notated above the duration line
Duration letters will always appear directly above the note/fret number it represents the
duration for.  Duration letters with no fret number below them represent rests.  Multi-
bar rests are notated in the form Wxn, where n is the number of bars to rest for.  Low
melody durations appear below the staff

Tablature Legend
----------------
 h   - hammer-on
 p   - pull-off
 b   - bend
 pb  - pre-bend
 r   - bend release (if no number after the r, then release immediately)
 /  - slide into or out of (from/to "nowhere")
 s   - legato slide
 S   - shift slide
  - natural harmonic
{n}  - artificial harmonic
n(n) - tapped harmonic
 ~   - vibrato
 tr  - trill
 T   - tap
 TP  - trem. picking
 PM  - palm muting

/  - tremolo bar dip; n = amount to dip
 
  - tremolo bar down
 n/  - tremolo bar up
/n  - tremolo bar inverted dip
 =   - hold bend; also acts as connecting device for hammers/pulls
 <>  - volume swell (louder/softer)
 x   - on rhythm slash represents muted slash
 o   - on rhythm slash represents single note slash


Por André Arruda Rangel
[email protected]

_______________________________________________________
Contribuição: ([email protected])
	  

Search Paypal
auto scroll beats size up size down change color hide chords drawings
tab show chords e-chords YouTube Clip e-chords hide all tabs e-chords go to top tab