Black Sabbath

home > Black Sabbath

Pariah Tab

Black Sabbath

Difficulty: EasyEasy

by adalgomes

tuner correct add songbook print version text version save to e-mail
chordsukulelecavacokeyboardtabbassdrumsharmonicsflute Guitar Pro
chords

Pariah

  		

Tuning: Eb Ab Db Gb Bb Eb 



---------------------------------------------------------------| 
---------------------------------------------------------------| 
----------0-------------0----------5-----------------0---------| 
-------4-------------0----------5-----5-----------0------------| 
----2-------------2--------0-3-----------------3---------------| 
-0-----------0-3----------------------------5-------------3~---| 


---------------------------------------------------------------| 
---------------------------------------------------------------| 
----------0-------------0----------5-----------------0---------| 
-------4-------------0----------5-----5-----------0------------| 
----2--------2----2--------0-3----------3------3---------------| 
-0-------------3----------------------------5-------------3~---| 


------------------------------------------------------| 
------------------------------------------------------| 
----------0-------------0----------5------------------| 
-------4-------------0----------5-----5----2----------| 
----2-------------2--------0-3----------3--0----------| 
-0-----------0-3--------------------------------------| 





0:29 


------------------------------------------------| 
---------------------------------------8-8------| 
---------------------------------------7-7~\----| 
------------------------------------------------| 
----7-6-5---5-----------------------------------| 
-0--------7-----7-6-5-0-3--0-3--0--0------------| 


-----------------------------------------------| 
-----------------------------------------------| 
-----------------------------------------------| 
-----------------------------------------7-9---| 
----7-6-5---5----------------------------5-7---| 
-0--------7-----7-6-5-0-3--0-3-0--3-0-0--------| 


------------------------------------------------| 
---------------------------------------8-8------| 
---------------------------------------7-7~\----| 
------------------------------------------------| 
----7-6-5---5-----------------------------------| 
-0--------7-----7-6-5-0-3--0-3--0--0------------| 


-------------------------------------------| 
-------------------------------------------| 
-------------------------------------------| 
-------------------------------------------| 
----7-6-5---5------------------------------| 
-0--------7-----7-6-5-0-3--0-3-0--3-0------| 





0:45 


----------------------------------------------------------------| 
----------------------------------------------------------------| 
----------------------------------------------------------------| 
-7-9----12-11----7-9---------7-9----12-11----7-9----------------| 
-5-7----10--9----5-7---------5-7----10--9----5-7-------8--7--5--| 
-------------------------------------------------------6--5--3--| 
     |        |                  |        | 

--------------------------------------------------------| 
--------------------------------------------------------| 
--------------------------------------------------------| 
-7-9----12-11----7-9---------7-9----12-11----7-9--------| 
-5-7----10--9----5-7---------5-7----10--9----5-7--------| 
--------------------------------------------------------| 
     |        |                  |        | 

----------------------------------------------------------------| 
----------------------------------------------------------------| 
----------------------------------------------------------------| 
-7-9----12-11----7-9---------7-9----12-11----7-9----------------| 
-5-7----10--9----5-7---------5-7----10--9----5-7-------8--7--5--| 
-------------------------------------------------------6--5--3--| 
     |        |                  |        | 

--------------------------------------------------------| 
--------------------------------------------------------| 
--------------------------------------------------------| 
-7-9----12-11----7-9---------7-9----12-11----7-9--------| 
-5-7----10--9----5-7---------5-7----10--9----5-7--------| 
--------------------------------------------------------| 
     |        |                  |        | 


----------------------------------------------------------------| 
----------------------------------------------------------------| 
----------------------------------------------------------------| 
-7-9----12-11----7-9---------7-9----12-11----7-9----------------| 
-5-7----10--9----5-7---------5-7----10--9----5-7-------8--7--5--| 
-------------------------------------------------------6--5--3--| 
     |        |                  |        | 

--------------------------------------------------------| 
--------------------------------------------------------| 
--------------------------------------------------------| 
-7-9----12-11----7-9---------7-9----12-11----7-9--------| 
-5-7----10--9----5-7---------5-7----10--9----5-7--------| 
--------------------------------------------------------| 
     |        |                  |        | 






1:36 

---------------------------------------------------------| 
---------------------------------------------------------| 
---------------------------------------------------------| 
------2-1--------5-4----7--7-7-7-7-7-7-7-----------------| 
--0---------2-3-------3-5--5-5-5-5-5-5-5\--------3---3~--| 
-------------------------------------------0-3-5---5-----| 
                                         | 

-------------------------------------------------------| 
-------------------------------------------------------| 
-------------------------------------------------------| 
------2-1--------5-4---7--7-7-7-7-7-7-8--8-8-8-8-8-8-8-| 
--0--------2-3-------3-5--5-5-5-5-5-5-6--6-6-6-6-6-6-6-| 
-------------------------------------------------------| 
                                        
                                        






1:53 


------------------------------------------------| 
---------------------------------------8-8------| 
---------------------------------------7-7~\----| 
------------------------------------------------| 
----7-6-5---5-----------------------------------| 
-0--------7-----7-6-5-0-3--0-3--0--0------------| 


-----------------------------------------------| 
-----------------------------------------------| 
-----------------------------------------------| 
-----------------------------------------7-9---| 
----7-6-5---5----------------------------5-7---| 
-0--------7-----7-6-5-0-3--0-3-0--3-0-0--------| 


------------------------------------------------| 
---------------------------------------8-8------| 
---------------------------------------7-7~\----| 
------------------------------------------------| 
----7-6-5---5-----------------------------------| 
-0--------7-----7-6-5-0-3--0-3--0--0------------| 


-------------------------------------------| 
-------------------------------------------| 
-------------------------------------------| 
-------------------------------------------| 
----7-6-5---5------------------------------| 
-0--------7-----7-6-5-0-3--0-3-0--3-0------| 





2:10 


----------------------------------------------------------------| 
----------------------------------------------------------------| 
----------------------------------------------------------------| 
-7-9----12-11----7-9---------7-9----12-11----7-9----------------| 
-5-7----10--9----5-7---------5-7----10--9----5-7-------8--7--5--| 
-------------------------------------------------------6--5--3--| 
     |        |                  |        | 

--------------------------------------------------------| 
--------------------------------------------------------| 
--------------------------------------------------------| 
-7-9----12-11----7-9---------7-9----12-11----7-9--------| 
-5-7----10--9----5-7---------5-7----10--9----5-7--------| 
--------------------------------------------------------| 
     |        |                  |        | 

----------------------------------------------------------------| 
----------------------------------------------------------------| 
----------------------------------------------------------------| 
-7-9----12-11----7-9---------7-9----12-11----7-9----------------| 
-5-7----10--9----5-7---------5-7----10--9----5-7-------8--7--5--| 
-------------------------------------------------------6--5--3--| 
     |        |                  |        | 

--------------------------------------------------------| 
--------------------------------------------------------| 
--------------------------------------------------------| 
-7-9----12-11----7-9---------7-9----12-11----7-9--------| 
-5-7----10--9----5-7---------5-7----10--9----5-7--------| 
--------------------------------------------------------| 
     |        |                  |        | 





2:43 


---------------------------------------------------------| 
---------------------------------------------------------| 
---------------------------------------------------------| 
------2-1--------5-4----7--7-7-7-7-7-7-7-----------------| 
--0---------2-3-------3-5--5-5-5-5-5-5-5\--------3---3~--| 
-------------------------------------------0-3-5---5-----| 
                                         | 

-------------------------------------------------------| 
-------------------------------------------------------| 
-------------------------------------------------------| 
------2-1--------5-4---7--7-7-7-7-7-7-8--8-8-8-8-8-8-8-| 
--0--------2-3-------3-5--5-5-5-5-5-5-6--6-6-6-6-6-6-6-| 
-------------------------------------------------------| 
                                        





3:01 


------------------------------------------------| 
---------------------------------------8-8------| 
---------------------------------------7-7~\----| 
------------------------------------------------| 
----7-6-5---5-----------------------------------| 
-0--------7-----7-6-5-0-3--0-3--0--0------------| 


-----------------------------------------------| 
-----------------------------------------------| 
-----------------------------------------------| 
-----------------------------------------7-9---| 
----7-6-5---5----------------------------5-7---| 
-0--------7-----7-6-5-0-3--0-3-0--3-0-0--------| 


------------------------------------------------| 
---------------------------------------8-8------| 
---------------------------------------7-7~\----| 
------------------------------------------------| 
----7-6-5---5-----------------------------------| 
-0--------7-----7-6-5-0-3--0-3--0--0------------| 


-------------------------------------------| 
-------------------------------------------| 
-------------------------------------------| 
-------------------------------------------| 
----7-6-5---5------------------------------| 
-0--------7-----7-6-5-0-3--0-3-0--3-0------| 







3:17 

----------------------------------------------------------| 
----------------------------------------------------------| 
----------------------------------------------------------| 
-------5-----------7-----7/9--------5~~--------7----------| 
----7-----------6-----6----------7----------6-----6-6/9---| 
-0-----------0----------------0----------0----------------| 

----------------------------------------------------------| 
----------------------------------------------------------| 
----------------------------------------------------------| 
-------5-----------7-----7/9--------5~~--------7----------| 
----7-----------6-----6----------7----------6-----6-6/9---| 
-0-----------0----------------0----------0----------------| 

----------------------------------------------------------| 
----------------------------------------------------------| 
----------------------------------------------------------| 
-------5-----------7-----7/9--------5~~--------7----------| 
----7-----------6-----6----------7----------6-----6-6/9---| 
-0-----------0----------------0----------0----------------| 

----------------------------------------------------------| 
----------------------------------------------------------| 
----------------------------------------------------------| 
-------5-----------7-----7/9--------5~~--------7----------| 
----7-----------6-----6----------7----------6-----6-6/9---| 
-0-----------0----------------0----------0----------------| 






3:52 

-----------------------------------------------------------------------| 
-----------------------------------------------------------------------| 
-----------------------------------------------------------------------| 
------------5-----------------2----------------5-----------------2-----| 
------------3-----------------0----------------3-----------------0-----| 
-0---2---3---------0---2---3-----3~-0---2---3---------0---2---3--------| 





4:12 

----------------------------------------------)-------------------| 
--------------------------------------------10--8~--10-8-7--------| 
---------------------------------------7~~7----------------7---9--| 
---2-4-5~~~--------4-4/7~~~------7-7/9-----------------------9----| 
------------------------------------------------------------------| 
-0------------3-0-------------5-----------------------------------| 



4:22 

   ~~~~~~~__ 
---)-----|-(------------------------------| 
-15-----15---12-15-12---------)-----------| 
----------------------14-12-14--12~~~~----| 
------------------------------------------| 
------------------------------------------| 
------------------------------------------| 



4:26 
----_____---------------------------------------------| 
---/     \--------------------------------------------| 
-12-14-12-11------------------------------------------| 
-------------12----14-12~----^------------------------| 
----------------14---------14-12----12-14-12----------| 
---------------------------------15----------15-12~~--| 
                     | 


4:31 

-------------------------------------__-----------------------| 
------------------------------------/  \----------------------| 
-------------------------12-11-12-11-12-11----11--------------| 
-------------------12-14-------------------14----12-14~~~~~---| 
----------10-12-14--------------------------------------------| 
-10-12-14-----------------------------------------------------| 


     
4:35 
        ____~~~~                          ~~~~~~~ 
--------)--|-------12-14-15-14-12----12---)------| 
---12-15--15----------------------15----15-------| 
-12----------------------------------------------| 
-------------------------------------------------| 
-------------------------------------------------| 
-------------------------------------------------| 
         | 


4:39 

~~__ 
--|-(---------------------------------------------| 
-15---12-15---------------------------------------| 
------------12-11~~-14-11-------------------------| 
-------------------------12---14-12----12~~~~~~~--| 
---------------------------14-------14------------| 
--------------------------------------------------| 



4:44 

---------------------------------------------------------| 
---------------------------------------------------------| 
-------------------------_____---------------------------| 
------------------------/     \---------------)----------| 
-/14---12---10---12---10-12-10-9--10---12---14---12~~~---| 
---------------------------------------------------------| 
     |    |    |   |                |    |     |    





4:48 

------------------------------------------------| 
---------------------------------------8-8------| 
---------------------------------------7-7~\----| 
------------------------------------------------| 
----7-6-5---5-----------------------------------| 
-0--------7-----7-6-5-0-3--0-3--0--0------------| 


-----------------------------------------------| 
-----------------------------------------------| 
-----------------------------------------------| 
-----------------------------------------7-9---| 
----7-6-5---5----------------------------5-7---| 
-0--------7-----7-6-5-0-3--0-3-0--3-0-0--------| 


------------------------------------------------| 
---------------------------------------8-8------| 
---------------------------------------7-7~\----| 
------------------------------------------------| 
----7-6-5---5-----------------------------------| 
-0--------7-----7-6-5-0-3--0-3--0--0------------| 


-----------------------------------------------| 
-----------------------------------------------| 
-----------------------------------------------| 
-----------------------------------------7-9---| 
----7-6-5---5----------------------------5-7---| 
-0--------7-----7-6-5-0-3--0-3-0--3-0-0--------| 


------------------------------------------------| 
---------------------------------------8-8------| 
---------------------------------------7-7~\----| 
------------------------------------------------| 
----7-6-5---5-----------------------------------| 
-0--------7-----7-6-5-0-3--0-3--0--0------------| 


-----------------------------------------------| 
-----------------------------------------------| 
-----------------------------------------------| 
-----------------------------------------7-9---| 
----7-6-5---5----------------------------5-7---| 
-0--------7-----7-6-5-0-3--0-3-0--3-0-0--------| 



------------------------------------------------| 
---------------------------------------8-8------| 
---------------------------------------7-7~\----| 
------------------------------------------------| 
----7-6-5---5-----------------------------------| 
-0--------7-----7-6-5-0-3--0-3--0--0------------| 


-------------------------------------------| 
-------------------------------------------| 
-------------------------------------------| 
-------------------------------------------| 
----7-6-5---5------------------------------| 
-0--------7-----7-6-5-0-3--0-3-0--3-0------| 
	  

Search Paypal
auto scroll beats size up size down change color hide chords drawings
tab show chords e-chords YouTube Clip e-chords hide all tabs e-chords go to top tab