Black Sabbath

home > Black Sabbath

Over and over Tab

Black Sabbath

Difficulty: ExpertExpert

tuner correct add songbook print version text version save to e-mail
chordsukulelecavacokeyboardtabbassdrumsharmonicsflute Guitar Pro
chords

Over and over

Year: 1990 - Album: The Mob Rules

  		ATENÇÃO:Do último solo tem só um pedaço.

e|------------------------------------------------||
b|------------------------------------------------||
g|.----------------------------------------------.||
d|---5-4------------------------------------------||
a|.------5--7----------5------5/7----------------.||
e|----------0---------------7---------------------||

e|------------------------------------------------||
b|------------------------------------------------||
g|------------------------------------------------||
d|---5-4------------------------------------------||
a|-------5--7-----------5------5/7----------------||
e|----------0----------------7--------------------||

e|------------------------------------------------||
b|------------------------------------------------||
g|------------------------------------------------||
d|-5-4---7-5^--------7-5-4-5-4--------------------||
a|-----5--------7--------------5-7-----5-----5/7--||
e|-------------------------------0---------7------||
  
e|------------------------------------------------||
b|------------------------------------------------||
g|------------------------------------------------||
d|-5-4-----4-5----4-5-7-5-4-5-4-------------------||
a|-----5-7-----7-----------------5-7--------------||
e|---------------------------------0--------------||

e|---------------------------------------12^------||
b|-----------------------------15^--12h15----15-12||
g|-----------------------14-----------------------||
d|---4-5-7---9----12/14---------------------------||
a|-7----------------------------------------------||
e|------------------------------------------------||

        Notation

^    Bend(1T)
/    Ligadura
h    Hammer-on



_______________________________________________________
Contribuição: Egberto Freire P. de Vasconcellos([email protected])
	  

Search Paypal
auto scroll beats size up size down change color hide chords drawings
tab show chords e-chords YouTube Clip e-chords hide all tabs e-chords go to top tab