Black Sabbath

home > Black Sabbath

Megalomania Tab

Black Sabbath

Difficulty: BeginnerBeginner

tuner correct add songbook print version text version save to e-mail
chordsukulelecavacokeyboardtabbassdrumsharmonicsflute Guitar Pro
chords

Megalomania

Year: 1990 - Album: Past Lives

  		 
1|----------------------------| 
2|----------------------------| 
3|----------------------------| 
4|----------------------------| 
5|-----4---5---5---7---5---| 
6|---2---2---2--------------| 
 
F# G  F# G  F# G 
 
B A B A B A ... C#  B C# B C# ... 
 
1|----------------------------| 
2|----------------------------| 
3|----------------------------| 
4|----------------------------| 
5|-----4---5---5---7---5---| 
6|---2---2---2--------------| 
 
A Em G B A }2x 
 
F# G# F# G# F# A . A G# Em F# 
 
B A F# 
 
B F# 
 
F# G# F# G# F# A . A G# Em F# 
 
B A F# 
 
B F# 
 
F# G# F# G# F# A . A G# Em F# 
 
B A F#     B F# 
 
By Fernando sabbath Music Cifras ltda   
 
 
_______________________________________________________ 
Contribuição: fernando henrique piasecki([email protected])
	  

Full key step upFull key step up
Half key step upHalf key step up
Half key step downHalf key step down
Full key step downFull key step down
Search Paypal
auto scroll beats size up size down change color hide chords drawings
tab show chords e-chords YouTube Clip e-chords hide all tabs e-chords go to top tab