Black Sabbath

home > Black Sabbath

Iron Man (Intro e Riff) Tab

Black Sabbath

Difficulty: BeginnerBeginner

by derrickhenrik

tuner correct add songbook print version text version save to e-mail
chordsukulelecavacokeyboardtabbassdrumsharmonicsflute Guitar Pro
chords

Iron Man (Intro e Riff)

  		Intro 

|---------------------------------------------| 
|---------------------------------------------| 
|--------------87r87r8r-----------------------| 
|-5-8--8/10-10-65r65r6r-8-8h10----------------| 
|-3-6--6/-8--8----------6-6h8-----------------| 
|---------------------------------------------| 

Riff 1 

|---------------------------------------------| 
|---------------------------------------------| 
|---------------------------------------------| 
|-------1-------------------------------------| 
|-3-3-3---3--2--1-1-1---0-1--1-2--------------| 
|---------------------1-----------------------| 

Riff 2 

|---------------------------------------------| 
|---------------------------------------------| 
|------------345------------------------------| 
|-5-5--3-345----------------------------------| 
|-3-3-36--------------------------------------| 
|---------------------------------------------| 

Riff 3 

|---------------------------------------------| 
|---------------------------------------------| 
|-7-5-------------------7-5-------------------| 
|-----7-6-5-3---------------7-6-5-3-----------| 
|-------------3-3-h-5-5-------------3-3-h-5-5-| 
|---------------------------------------------| 



repita as tablaturas o mesmo tanto de vezes que na música 

vlw* 

	  

Search Paypal
auto scroll beats size up size down change color hide chords drawings
tab show chords e-chords YouTube Clip e-chords hide all tabs e-chords go to top tab