Black Pistol Fire

Run Rabbit Run

Black Pistol Fire

tabs

by  RAFOULS

save to print version add songbook text version e-mail correct tuner
chordsukulelecavacokeyboardtabbassdrumsharmonicaflute Guitar Pro
close

there isn't a video lesson for this song

chords

Run Rabbit Run

(Black Pistol Fire)

	  		
 

This is a simplification, I was lazy, sorry. But is more than enough I think. 

|-------------------------------------------------| 
|----------------3h5---5p3------------------------| 
|--2b--0---------------------2-0---2p0-----0------| 
|----------2h5---------------------------2--------| 
|-------------------------------------------------| 
|-0---0--0-----0-----0-----0-----0-----0-----3b~--| 

Verse 

|----------------------| 
|----------------------| 
|----------------------| 
|---5-2-------------2~-| 
|---------0h2-0--------| 
|-0-----0-------3p0----| 

Chorus (?) 

|-------22-22---xx-xx-x-||-2~------------| 
|-------33-33-2-xx-xx-x-||-2~-----2~-----| 
|-11-11-22-22-2-xx-xx-x-||-0~-----2~-----| 
|-22-22-00-00-2-xx-xx-x-||-0~-----2~-----| 
|-22-22-------0-xx-xx-x-||-2~-----0~-----| 
|-00-00---------xx-xx-x-||-3~------------| 
		  

auto scroll beats size up size down change color hide chords drawings
tab show chords e-chords YouTube Clip e-chords hide all tabs e-chords go to top tab

share