Black Pistol Fire

Beelzebub

Black Pistol Fire

tabs

by  RAFOULS

save to print version add songbook text version e-mail correct tuner
chordsukulelecavacokeyboardtabbassdrumsharmonicaflute Guitar Pro
close

there isn't a video lesson for this song

chords

Beelzebub

(Black Pistol Fire)

	  		
|---------------------------------|---------------------------| 
|---------------------------------|---------------------------| 
|---------------------------------|-----------0h2-0-----------| 
|---2p0-----2/5-2----2------------|---2p0--------------2p0-2~-| 
|-------2p0------------0h2p0------|-------2p0-----------------| 
|-0----------------0---------3b~--|-0---------0------0--------| 

Verse 

|---x-|-----|-------| 
|-2-x-|-----|-------| 
|-2-x-|-----|-------| 
|-2-x-|-----|-------| 
|-0-x-|-----|-------| 
|---x-|-3-x-|-9\0-0-| 

outro 

Guitar 1 

|----10-9-7-----7-7-7---||-9~------10/12-10-------| 
|----0--0-0--10-0-0-0---||-10~---------------12~--| 
|-9--9--9-9--9--9-9-9-9-||-9~---------------------| 
|-----------------------||------------------------| 
|-----------------------||------------------------| 
|-----------------------||------------------------| 

Guitar 2 

|----------------------------||--------------| 
|----------------------------||--------------| 
|----------------------------||-2~-----------| 
|----------------------------||-2~-----------| 
|----5---4---2---0--2-2p0----||-0~-----------| 
|-0----0---0---0----------0~-||----------3b--| 
		  

auto scroll beats size up size down change color hide chords drawings
tab show chords e-chords YouTube Clip e-chords hide all tabs e-chords go to top tab

share