Black Label Society

Crazy Or High Tab

Black Label Society

Difficulty: ExpertExpert

by Du+Hast

tuner correct add songbook print version text version save to e-mail
chordsukulelecavacokeyboardtabbassdrumsharmonicsflute Guitar Pro
close

there isn't a video lesson for this song

chords

Crazy Or High

  		From: www.BlackLabelSociety.net 
 
Tabbed By: Skull Dragon 
 
Tuning: Eb Ab Db Gb Bb Eb 
 
 
Intro: 
Repeat 
|---------------------------------3-------2-----------------| 
|--------------1p0h1p0--------------3---------3-------------| 
|-----0h2----------------2------------2---------2-----------| 
|---------------------------2----------------------0--------| 
|--0-------0-------------------0----------------------------| 
|-----------------------------------------------------------| 
 
 
 
bend (7^) 1 step up  
|--------------------------------------------------------------| 
|--------------------------------------------------------------| 
|----7^---------5----------------------------------------------| 
|----------------------5^--------------------------------------| 
|--------------------------------------------------------------| 
|--------------------------------------------------------------| 
 
 
These are just the chords, listen for the rhythm of the song. 
You can also use 1st position chords, Ab, Gb, Db, and Cb/(aka B) 
|--------------------------------------------------------------| 
|--------------------------------------------------------------| 
|---------------7----------------7--5--------------------------| 
|----7-7--5-7---7-----7-7--5-7---7--5--------------------------| 
|----7-7--5-7---5-----7-7--5-7---5--3--------------------------| 
|----5-5--3-5---------5-5--3-5---------------------------------| 
 
 
                                       repeat:   
|-----------------------------------|---------------------------------| 
|-----------------------------------|---------------------------------| 
|---------------7----------------7--|---------------------------------| 
|----7-7--5-7---7-----7-7--5-7---7--|--9-9-9--9-9-9--9-9-9------------| 
|----7-7--5-7---5-----7-7--5-7---5--|--7-7-7--7-7-7--7-7-7--7ph--7ph--| 
|----5-5--3-5---------5-5--3-5------|--0-0-0--0-0-0--0-0-0------------| 
 
 

	  

Full key step upFull key step up
Half key step upHalf key step up
Half key step downHalf key step down
Full key step downFull key step down
auto scroll beats size up size down change color hide chords drawings
tab show chords e-chords YouTube Clip e-chords hide all tabs e-chords go to top tab

share with facebook

Search Paypal