Billy Currington

We Are Tonight

Billy Currington

tabs

by  IRONPOWER4EVER

save to print version add songbook text version e-mail correct tuner
chordsukulelecavacokeyboardtabbassdrumsharmonicaflute Guitar Pro
close

there isn't a video lesson for this song

chords

We Are Tonight

	  		 

Intro 
e|---------------------------------------------------------------------------| 
B|-12-12-12-14-14-14-14-14-14-14-12-12-12-12-11-11-11-12-12-12---------------| 
G|-11-11-11-11-11-11-11-11-11-11-11-11-11-11-11-11-11-11-11-11---------------| 
D|---------------------------------------------------------------------------| 
A|---------------------------------------------------------------------------| 
E|---------------------------------------------------------------------------| 

verses 
e|-----2-----2------2--------------------------------------------------------| 
B|----0-0--0--0----0-0-----4-4-4--------12--14p12-11b------------------------| 
G|-3h4----4-4---4p3-----6-6--6-6---11-11--11---------------------------------| 
D|---------------------------------------------------------------------------| 
A|---------------------------------------------------------------------------| 
E|---------------------------------------------------------------------------| 
                        . .. . . 

Solo  (b=bend half step) 
e|---------------------------------------------------------------------------| 
B|-14b-14v---12h14b-14v---12h14b-14v-14-17\16-12-11-7\5-4--------------------| 
G|--------------------------------------------------------4v-----------------| 
D|---------------------------------------------------------------------------| 
A|---------------------------------------------------------------------------| 
E|---------------------------------------------------------------------------| 



************************************ 

| /   slide up 
| \   slide down 
| h   hammer-on 
| p   pull-off 
| ~   vibrato 
| +   harmonic 
| x   Mute note 
| b   Bend 
| .   Palm mute 

************************************ 
		  

See also:

tabs Garth Brooks - If Tomorrow Never Comes.(ver.2) tabs Hank Williams Jr - A Country Boy Can Survive (correct) tabs Alison Krauss - You Say Nothing At All tabs Kenny Chesney - Old Blue Chair (ver. 2) tabs Garth Brooks - Friends In Low Places (ver.2) tabs Simpsons - The simpsons
e-chords

Other versions:

tabs Billy Currington - We Are Tonight
auto scroll beats size up size down change color hide chords drawings
tab show chords e-chords YouTube Clip e-chords hide all tabs e-chords go to top tab

share