Bikini Kill

Rebel Girl

Bikini Kill

tabs Advanced advanced

save to print version add songbook text version e-mail correct tuner
chordsukulelecavacokeyboardtabbassdrumsharmonicaflute Guitar Pro
close

there isn't a video lesson for this song

chords

Rebel Girl

	  		 
Introdução: 
 
      A                          G 
E|---5-5-5-5-5-5-5-5-5-5-5-5-5---3-3--------------| 
A|---7-7-7-7-7-7-7-7-7-7-7-7-7---5-5--------------| 
D|---7-7-7-7-7-7-7-7-7-7-7-7-7---5-5--------------| 
G|------------------------------------------------| 
B|------------------------------------------------| 
E|------------------------------------------------| 
 
A música toda é assim e tem essa variação no final de cada refrão: 
 
    A         C         D             G         A         G         A         G 
E|--5-5-5-5/--8-8-8-8/--10-10-10-10/--3-3-3-3/--5-5-5-5/--3-3-3-3/--5-5-5-5/--3-3-3-3----| 
A|--7-7-7-7/--7-7-7-7/--12-12-12-12/--5-5-5-5/--7-7-7-7/--5-5-5-5/--3-3-3-3/--5-5-5-5----| 
D|--7-7-7-7/--7-7-7-7/--12-12-12-12/--5-5-5-5/--7-7-7-7/--5-5-5-5/--3-3-3-3/--5-5-5-5----| 
G|---------------------------------------------------------------------------------------| 
B|---------------------------------------------------------------------------------------| 
E|---------------------------------------------------------------------------------------| 
 
 
_______________________________________________________ 
Contribuição: Luiz([email protected]) 

		  

Full key step upFull key step up
Half key step upHalf key step up
Half key step downHalf key step down
Full key step downFull key step down
auto scroll beats size up size down change color hide chords drawings
tab show chords e-chords YouTube Clip e-chords hide all tabs e-chords go to top tab

share