Big Bang

home > Big Bang

If You Tab

Big Bang

Difficulty: nolevelnolevel

by brunblazkowski

tuner correct add songbook print version text version save to e-mail
chordsukulelecavacokeyboardtabbassdrumsharmonicsflute Guitar Pro
chords

If You

  		
Tuning:standard 
Intro:  
e|-6-----6----6------------3---3---------------------------------------------------| 
B|------------------9--------4----4--4---4-6-7---7-----10------9-------9---------9-| 
G|---6-----6-----6-----6----3-3--3-3---3-------6----6------11------10------10----10| 
D|--8-8---8-8---8-8---8-8-------------5-5-----8-8--8-8---11--11--11--11--11--11--11| 
A|---------------------------------------------------------------------------------| 
E|---------------------------------------------------------------------------------| 
Verse: 
e|-6----6----6---------2---2----4---2-----4---4---2---2----1---1---1---------------| 
B|----------------9------2----2---2---2-----4---4---2---2----2---2---2--4----------| 
G|---6----6----6----6---3-3--3-3-3-3-3-3---3-3-3-4-3-3-3-3--1-1-1-1-1-1---5--------| 
D|--8-8--8-8--8-8--8-8---------------------------------------------------6-6-------| 
A|---------------------------------------------------------------------------------| 
E|---------------------------------------------------------------------------------| 
the chord on here, that says 4-3-4-3 I changed from 4-6-6-6. this change sounds better than what I first thought but it still feels off. If anyone knows the actual chord, feel free to express it 

e|-6---6---6-------3---3--------------------------------------------------------------| 
B|-------------9-----4---4-4---4-6-7---7---10------10-----9------9------9------9------| 
G|---6---6---6---6--3-3-3-3--3-------6---6-----11------11----10-----10-----10-----10--| 
D|--8-8-8-8-8-8-8-8---------5-5-----8-8-8-8--11--11--11-11--11-11--11-11--11-11-11--11| 
A|------------------------------------------------------------------------------------| 
E|------------------------------------------------------------------------------------|x2 but 
with an alternative ending that is the same as the intro. You can listen to the music  
and it is really simple to catch on. 

Chorus: 
e|-6---6---6---9---4---4---4---9---5---5---8---8---6---6---4---4-------------| 
B|---6---6---6---6---6---6---6---6---6---6---6---6---6---6---6---6-----------| 
G|--6-6-6-6-6-6-6-6-6-6-6-6-6-6-6-6-6-6-6-6-6-6-6-6-6-6-6-6-6-6-6-6----------| 
D|---------------------------------------------------------------------------| 
A|---------------------------------------------------------------------------| 
E|---------------------------------------------------------------------------|x2 second time around,  
don't repeat the last chord but go staight to the following. 

e|-2---1--------3----6----9---6---6---5---5---5---4---4----4----------------| 
B|---2---2--4-----4----6----8---7---7---6---6---6---6---6--6----------------| 
G|--3-3-1-1---3--3-3--8-8------6-6-6-6-6-6-6-6-6-6-6-6-6-6-6----------------| 
D|-----------5-5------------------------------------------------------------| 
A|--------------------------------------------------------------------------| 
E|--------------------------------------------------------------------------| 
Verse repeats. Chorus repeats.  

Bridge: 
e|------------------------------2------------------------------------------| 
B|-6---4---6----4---2---2------2----7----6---11------9-------7---7------7--| 
G|---6---5---6----5---3---3---3-------8----6-----11------10----7---8---8---| 
D|--6-6-6-6-6-6--6-6-3-3-3-3-3-------8-8--6-6--12--12--11--11-8-8-8-8-8----| 
A|-------------------------------------------------------------------------| 
E|-------------------------------------------------------------------------| 

e|----------------------------------------------------------------------------| 
B|-7---7---/10------10------9------9------9-----------------------------------| 
G|---6---6------11------11-----10-----10-----10---10--------------------------| 
D|--8-8-8-8---11--11--11--11-11--11-11--11-11--11-----11----------------------| 
A|--------------------------------------------------11------------------------| 
E|----------------------------------------------------------------------------| 

e|---------------------------------------------------------------------------| 
B|-2---2---4----4----6-------------------------------------------------------| 
G|---3---3----5---5--6-------------------------------------------------------| 
D|--4-4-4-4--6-6-6-6-6-------------------------------------------------------| 
A|---------------------------------------------------------------------------| 
E|---------------------------------------------------------------------------| 

Chorus one last time. 
	  

Search Paypal
auto scroll beats size up size down change color hide chords drawings
tab show chords e-chords YouTube Clip e-chords hide all tabs e-chords go to top tab