Bide ou Balde

home > Bide ou Balde

Gerson Tab

Bide ou Balde

Difficulty: nolevelnolevel

tuner correct add songbook print version text version save to e-mail
chordsukulelecavacokeyboardtabbassdrumsharmonicsflute Guitar Pro
chords

Gerson

  		>Riff 1 (Intro) 
 
         Guitarra 1 - Sá 
E|--------------------------------------| 
B|--------------------------------------| 
G|--------------PAUSA-------------------| 
D|--------------------------------------| 
A|--------------------------------------| 
E|--------------------------------------| 
 
   Guitarra 2 - Rossatto (Pilla) 
E|--------------------------------------| 
B|--------------------------------------| 
G|-----777-------777--------------------| <- Umas 2x 
D|-----777--555--777--555---------------| 
A|-----555--555--555--555---------------| 
E|----------333-------333---------------| 
 
 
Riff 2 (Versos) 
 
        Guitarra 1 - Sá 
E|---------------------------------------| 
B|----3---3---3--PAUSA----3---3---3------| 
G|--2---2---2-----------2---2---2--------| <- Na primeira vez do verso  
D|---------------------------------------|    Umas 3x depois passa para a variação 1x 
A|---------------------------------------|    Na seugunda vez do verso    
E|---------------------------------------|    1x dpois passa para a variação 1x   
                                              e repete de novo  
       Variação Guitarra 1 - Sá                  
E|---------------------------------------|      
B|---3---3---3---PAUSA----3---3---3---3--| 
G|-2---2---2------------2---2---2---2----| <- 1x sempre depois do riff do verso 3x 
D|---------------------------------------| 
A|---------------------------------------| 
E|---------------------------------------| 
 
Obs: Note que a variação você faz apenas uma vez mais  
o soloinho do que no riff normal, pois no riff normal você 
faz ele completo e faz uma pequena pausa no final  
até recomeça-lo e na variação você em vez de fazer  
a pausa no final, você faz mais uma vez o solinho 
até recomeçar o riff de novo 
 
 
     Guitarra 2 - Rossatto (Pilla) 
                 D5  D5 
E|---------------------------------------| 
B|---------------------------------------| 
G|---------------77--77------------------| <- umas 7x intercalando com o riff  
D|---------------77--77------------------|    da guitarra 1 e quando entra a varição 
A|---------------55--55------------------|    fazer uma vez normal e no final deixar soar  
E|---------------------------------------|    apenas o riff da variação da guitarra 1 
 
Obs: Você faz a guitarra 2 somente nas pausas da guitarra 1, 
e durante a variação faça uma pausa normal e no final da  
variação não toque a guitarra 2 
 
 
Riff 3 (Refrão) 
 
           Guitarra 1 - Sá  
E|----------------------------------------| 
B|----------------------------------------| 
G|-----------------PAUSA------------------| 
D|----------------------------------------| 
A|----------------------------------------| 
E|----------------------------------------| 
 
     Guitarra 2 - Rossatto (Pilla) 
      D D   A A   G G G G  
E|----2-2---0-0---3-3-3-3-----------------| 
B|----3-3---2-2---3-3-3-3-----------------| 
G|----2-2---2-2---------------------------| <- Umas 4x 
D|----0-0---2-2---------------------------| 
A|----------------2-2-2-2-----------------| 
E|----------------3-3-3-3-----------------| 
 
 
Riff 4 (Pós refrão) 
 
 
             Guitarra 1 - Sá 
                      D5  D5 
E|----------------------------------------| 
B|-------3---3---3------------------------| 
G|-----2---2---2------77--77--------------| <- Umas 2x 
D|--------------------55--55--------------| 
A|--------------------55--55--------------|       
E|----------------------------------------| 
 
 
      Guitarra 2 - Rossatto (Pilla) 
       D5   G5   D5   G5  
E|----------------------------------------| 
B|----------------------------------------| 
G|-----777-------777----------------------| <- Umas 2x 
D|-----777--555--777--555-----------------| 
A|-----555--555--555--555-----------------| 
E|----------333-------333-----------------| 
 
 
Riff 5 (Ponte e durante solo) 
 
        Guitarra 1 - Sá 
  Solo 1 primeira parte 
E|----------------------------------------| 
B|----------------------------------------| 
G|--7--7-7--9-9--11-11-11-11--12-12-------| 
D|----------------------------------------| 
A|----------------------------------------| 
E|----------------------------------------| 
 
  Continuação do solo 1 segunda parte 
E|--10------------------------------------| 
B|-----12-10------------------------------| 
G|-----------12-10--7-7-7-7-7-------------| <- Essa segunda parte do solo 1  
D|----------------------------------------|    não tenho certeza se está  
A|----------------------------------------|    certo, mas é mais ou menos isso 
E|----------------------------------------| 
 
Obs: Fazer o solo 1 completo, primeira parte  
e segunda parte 3x depois intercala o solo 2  
e solo 1 primeira parte até o final da música  
 
 Solo 2   
E|--10------------------------------------| 
B|-----12-10------------------------------| 
G|-----------12-10--7-9-7-9---------------| <- Esse solo 2 não sei se está 
D|----------------------------------------|    certo mas é mais ou menos isso ai  
A|----------------------------------------|    
E|----------------------------------------| 
 
 
   Guitarra 2 - Rossatto (Pilla) 
       D5   G5   D5   G5  
E|----------------------------------------| 
B|----------------------------------------| 
G|-----777-------777----------------------| <- Umas 12x 
D|-----777--555--777--555-----------------| 
A|-----555--555--555--555-----------------| 
E|----------333-------333-----------------| 
 
 
 
Ordem da música: 
 
Intro (2x) 
Verso guitarra 1 (6x) 
verso guitarra 2 (10x) 
Refrão (4x)  
Intro (2x) 
Pós refrão guitarra 1 (2x) 
Pós refrão guitarra 2 (2x) 
Verso guitarra 1 (4x) 
Verso guitarra 2 (6x) 
Refrão (4x) 
Intro (2x) 
Ponte (solo) guitarra 1 (9x) 
Ponte guitarra 2 (12) 
 
 
---------------Música------------------- 
 
 
Seis meses que você foi, 
continuo deitando do meu lado da cama. 
Abraço o seu travesseiro, contra o peito. 
Bem forte. Só por causa da dor. 
O nosso filho, Gerson - Lindo! -  
o mais bonito da escola, 
tinha que ver eles falando. 
Ele já cresceu seis meses desde então. 
 
Olho pro céu, e vejo você. 
Olho pro céu, e penso em ti. 
Olho pro céu, e vejo você. 
Olho pro céu, e penso em ti. 
 
Mas continuamos, 
mesmo com todo esse barulho. 
Os caras do bar me disseram pra eu achar alguém, 
eu acho que não. 
A tia Ana, a professora de artes, 
disse: O Gerson leva jeito pra arquiteto. 
Vamos tomar um chopp? - É claro que não! 
A senhora é professora do meu filho! 
 
Olho pro Gerson, e vejo você. 
Olho pro Gerson, e penso em ti. 
Olho pro Gerson, e vejo você. 
Olho pro Gerson, e penso em ti. 
 
 
_______________________________________________________ 
Contribuição: Felipe "MI" Teixeira Baixista da Banda El Gavião Selvegem([email protected]) 
	  

Full key step upFull key step up
Half key step upHalf key step up
Half key step downHalf key step down
Full key step downFull key step down
Search Paypal
auto scroll beats size up size down change color hide chords drawings
tab show chords e-chords YouTube Clip e-chords hide all tabs e-chords go to top tab