Beyoncé

home > Beyoncé

1plus1 Tab

Beyoncé

Difficulty: nolevelnolevel

by adalgomes

tuner correct add songbook print version text version save to e-mail
chordsukulelecavacokeyboardtabbassdrumsharmonicsflute Guitar Pro
chords

1plus1

  		

MAIN RIFF - Repeat throughout 
e|-----------------------------------------------------------------------| 
B|-----------------------------------------------------------------------| 
G|-----0------0------------------0-2----0-2----0-2----0-2----------------| 
D|---0------0------0-3----0-3---3-----3------3------3--------------------| 
A|-3------3------3------3------------------------------------------------| 
E|-----------------------------------------------------------------------| 



SOLO - 3:10 
Make love to me... 
e|------------------------------------------------------------------------| 
B|---------------------------------------7~--11b----14-16~---16b-19b--19~/| 
G|----------------------------3b-3~---6~----------------------------------| 
D|---------------4----------4---------------------------------------------| 
A|-------------4---4h6~---6-----------------------------------------------| 
E|-2~------2/6------------------------------------------------------------| 

3:31 
e|-14---------------------------------------------------------------------| 
B|----14-14-14-14h16-14---------------------------------------------------| 
G|---------------------15-13-11----11-13-15-13-11~-----11h13-11~----------| 
D|------------------------------13----------------------------------------| 
A|------------------------------------------------------------------------| 
E|------------------------------------------------------------------------| 

3:37 
e|------------------------------------------------------------------------| 
B|-----------------------------11h14b----14-11h14/16----------------------| 
G|-----------------------11h13--------------------------------------------| 
D|-13r11-----------11h13--------------------------------------------------| 
A|--------9--11h13--------------------------------------------------------| 
E|------------------------------------------------------------------------| 

3:42 
e|-------11-14-11-14~----------11-14-11-14b---14-11h14--------------------| 
B|-11-14-----------------11-14--------------------------------------------| 
G-------------------------------------------------------------------------| 
D|------------------------------------------------------------------------| 
A|------------------------------------------------------------------------| 
E|------------------------------------------------------------------------| 

3:47 
e|-16b-19-16b-19-16b-19-16b----14h16-14~----14---------------------------| 
B|---------------------------------------------14-16-12------------------| 
G|-----------------------------------------------------11----11----------| 
D|--------------------------------------------------------13----13-11----| 
A|-----------------------------------------------------------------------| 
E|-----------------------------------------------------------------------| 

3:58 
e|-----------------------------------------------------------------------| 
B|-----------------------------------------------------------------------| 
G|-----------------------------------------------------------------------| 
D|--------------( 11v, faintly? )----------------------------------------| 
A|-13-11-----------------------------------------------------------------| 
E|-------13-13~---------------------15/13~------11-9-2~------------------| 




Legend: 
~   vibrato 
b   bend 
h   hammer 
r   release 
/   slide 
	  

Search Paypal
auto scroll beats size up size down change color hide chords drawings
tab show chords e-chords YouTube Clip e-chords hide all tabs e-chords go to top tab