Between The Buried And Me

Specular Reflection

Between The Buried And Me

tabs

by  LUCICAMARGO

save to print version add songbook text version e-mail correct tuner
chordsukulelecavacokeyboardtabbassdrumsharmonicaflute Guitar Pro
close

there isn't a video lesson for this song

chords

Specular Reflection

	  		

c#|---------------------------------------------------------------------------| 
G#|---------------------------------------------------------------------------| 
E |---------------------------------------------------------------------------| 
B |--7---6-------------------------------------------7------------------------| x2 
F#|--5---4-------5-----2-1---4-------------------------6---6-/12---/13\-------| 
C#|--5---4---00003---2-----2-----3---9---8---5-6---5-----5--------------------| 
             ....                                   
              
c#|---------------------------------------------------------------------------| 
G#|---------------------------------------------------------------------------| 
E |---------------------------------------------------------------------------| 
B |--4-----------------4-----------------4-----------------7---6--------------| 
F#|----3---3-/9--/10\----3---3-/9--/10\----3---3-/9--/10\--5---4-------5------| 
C#|------2-----------------2-----------------2-------------5---4---00003------| 
                                                                   .... 
                                                                    
c#|---------------------------------------------------------------------------|-\ 
G#|---------------------------------------------------------------------------|  \ 
E |---------------------------------------------------------------------------|   | 
B |--------------------7-----/13--/14\---------------------7-----/13--/14\----|   | 
F#|--6---6-/12--/13\-----6---------------6---6-/12--/13\-----6----------------|   | 
C#|----5-------------------5---------------5-------------------5--------------|   | 
                                                                                  | 
                                                                                  | x2 
c#|----------------------------------------10---------10----------------------|   | 
G#|------------------------------------------11---------11--10---11-----------|   | 
E |--------------------------------------------12---------12------------------|   |  
B |---------------------7-----/13---/14\---------12-------------------7-------|   | 
F#|--6---6-/12---/13\-----6-------------------------------------------5-6-5-4-|  / 
C#|----5--------------------5-------------------------------------------6-5-4-|-/ 
                                                                        . . . 

c#|---------------------------------------------------------------------------| 
G#|---------------------------------------------------------------------------| 
E |---------------------------------------------------------------------------| 
B |--5-------4-----5-------4---------5-------4-----5-------------4/7----------| x2 
F#|--3-4-3-2-2-3-2-3-5-4-3-2-3-2-1-0-3-4-3-2-2-3-2-3-5-4-3-2-1-0-2/5----------| 
C#|----4-3-2---3-2---5-4-3---3-2-1-0---4-3-2---3-2---5-4-3-2-1-0--------------| 
       . . .   . .   . . .   . . . .   . . .   . .   . . . . . . 

c#|---------------------------------------------------------------------------| 
G#|---------------------------------------------------------------------------| 
E |---------------------------------------------------------------------------| 
B |--5-------4-----5-------4---------5-------4-----5-------------4/7----------| 
F#|--3-------2-----3-------2---------3-------2-----3-5-4-3-2-1-0-2/7----------| 
C#|--------------------------------------------------5-4-3-2-1-0--------------| 
                                                     . . . . . . 

c#|---------------------------------------------------------------------------| 
G#|---------------------------------------------------------------------------| 
E |---------------------------------------------------------------------------| 
B |--5-------4-----5-------4---------5-------4--------------------------------|  
F#|--3-4-3-2-2-3-2-3-5-4-3-2-3-2-1-0-3-4-3-2-2-3-2----------------------------| 
C#|----4-3-2---3-2---5-4-3---3-2-1-0---4-3-2---3-2----------------------------| 
       . . .   . .   . . .   . . . .   . . .   . .  

c#|--0~~--------0~~--------0~~------------------------------------------------| 
G#|--5~~--------5~~--------0~~-----6~~-----------------0----------------------| 
E |--5~~--------5~~--------2~~-----5~~---------------2------------------------| 
B |--0~~--------5~~--------2~~-----6~~-----4p2---2h4-----3----3-3-3-3-3-3-3---| 
F#|--0~~--------3~~--------0~~-----------------3------------------------------| 
C#|------------------------------------------------------1----1-1-1-1-1-1-1---| 


c#|------------------------0--------------------------------------------------| 
G#|----------------------4---4-------------------0----------------------------| 
E |--------------------6-------6---------------2------------------------------| 
B |--6-----6-------6-------------4---4p2---2h4-----3----3-3-3-3-3-3-3---------| x2 
F#|--4-0-3-4---0-3-4---------------------3------------------------------------| 
C#|----0-1-----0-1---------------------------------1----1-1-1-1-1-1-1---------| 
       . .     . . 

c#|------------------------0--------------------------------------------------| 
G#|----------------------4---4-------------------0----------------------------| 
E |--------------------6-------6---------------2------------------------------| 
B |--6-----6-------6-------------4---4p2---2h4-----3------3------3------------| 
F#|--4-0-3-4---0-3-4---------------------3------------------------------------| 
C#|----0-1-----0-1---------------------------------1----0-1----0-1----0-------| 
       . .     . .                                      .      .      . 

c#|------------------------0--------------------------------------------------| 
G#|----------------------4---4-------------------0----------------------------| 
E |--------------------6-------6---------------2------------------------------| 
B |--6-----6-------6-------------4---4p2---2h4-----3----3-3-3-3-3-3-3---------| 
F#|--4-0-3-4---0-3-4---------------------3------------------------------------| 
C#|----0-1-----0-1---------------------------------1----1-1-1-1-1-1-1---------| 
       . .     . . 

c#|----------------------------------------------0---------------0------------| 
G#|--------------------------------------------0---0-----------0---0----------| 
E |------------------------------------------2-------2-------2-------2--------| 
B |----------------------------------------3-----------3---3-----------3------| x2 
F#|--------------------------------------4---------------0--------------------| 
C#|--5-0-1-5----0-1-5----0-1-5----0-1-----------------------------------------| 
       . .      . .      . .      . 

c#|------------------------------------| 
G#|------------------------------------| 
E |------------------------------------| 
B |------------------------------------| 
F#|------------------------------------| 
C#|--5-0-1-5----0-1-5----0-1-----------| 
       . .      . .      . 

c#|-----------------------------------7---------------------------------------| 
G#|---------------------------------0-----------------------------------------| 
E |-------------------------------5-------------------------------------------| 
B |-----------------------------7--------------------------7------------------| 
F#|----------7~~---------7----6----------------7p6\3~~---6-----3--------------| 
C#|--00000000-----0-0---------------------0000-------5-------0-1--------------| 
     ........                             ....               .   

c#|-----------------------------------7---------------------------------------| 
G#|---------------------------------0-----------------------------------------| 
E |-------------------------------5-------------------------------------------| 
B |-----------------------------7---------------------------------------------| 
F#|----------7~~---------7----6----------------7p6\3~~---------/6----------5--| 
C#|--00000000-----0-0---------------------0000-------5---0-1-0-------0-1-0----| 
     ........                             ....           .   .       .   . 

c#|------------------------------------| 
G#|------------------------------------| 
E |------------------------------------| 
B |------------------------------------| 
F#|------------------------------------| 
C#|--5-0-1-5----0-1-5----0-1-----------| 
       . .        .      . 

c#|-----------------------------------7---------------------------------------| 
G#|---------------------------------0-----------------------------------------| 
E |-------------------------------5-------------------------------------------| 
B |-----------------------------7--------------------------7------------------| 
F#|----------7~~---------7----6----------------7p6\3~~---6-----3--------------| 
C#|--00-00-00-----0-0---------------------0000-------5-------0-1--------------| 
                                          ....               . 

c#|-----------------------------------7---------------------------------------| 
G#|---------------------------------0-----------------------------------------| 
E |-------------------------------5-------------------------------------------| 
B |-----------------------------7---------------------------------------------| 
F#|----------7~~---------7----6----------------7p6\3~~---------/6----------5--| 
C#|--00-00-00-----0-0---------------------0000-------5---0-1-0-------0-1-0----| 
                                          ....           .   .       .   . 

c#|------------------------------------| 
G#|------------------------------------| 
E |------------------------------------| 
B |------------------------------------| 
F#|------------------------------------| 
C#|--5-0-1-5----0-1-5----0-1-5----0-1--| 
       . .      . .      . .      . 

c#|----------0---------------0---------------0---------------0----------------| 
G#|--------0---0-----------0---0-----------0---0-----------0---0--------------| 
E |------2-------2-------2-------2-------2-------2-------2-------2------------| 
B |----3-----------3---3-----------3---3-----------3---3-----------3----------| 
F#|--4---------------0---------------3---------------0------------------------| 
C#|---------------------------------------------------------------------------| 


c#|----------0---------------0---------------1--------------------------------| 
G#|--------0---0-----------0---0-----------1---1------------------------------| 
E |------2-------2-------2-------2-------2-------2---2-5-2---2----------------| 
B |----3-----------3---3-----------3---3-----------3-------2---2--------------| 
F#|--4---------------0---------------3---------------------------3-2-0--------| 
C#|---------------------------------------------------------------------------| 


c#|---------5---------------------3---------|    |----------------------------| 
G#|-----5-----5-----3/5-----5-0-3---0-1-3/5-|    |----------------------------| 
E |-0-2---2-----2-0-----0-2-----------------|    |----------------------------| 
B |-----------------------------------------| x4 |---------------6----------6-| 
F#|-----------------------------------------|    |---------5-7-5----------5---| 
C#|-----------------------------------------|    |-5-7-4-5----------5-7-4-----| 


c#|-------0--------0-----------------0~-------------------| 
G#|---------0------------------------0~-------------------| 
E |-----9-------10-------------------0~-------------------| 
B |--10-------10-------------------------542--------------| 
F#|------------------2-----4---5/7----------53-3p2-2p3----| 
C#|------------------0---0-2-0-3/5-0-------------------2--| 
                         .   .     .                   + 

c#|------0-------0----------------------------------------| 
G#|--------0----------------------------------------------| 
E |----5-------5------------------------------------------| 
B |--5-------4-------------------------------8---9---11---| 
F#|--------------------------------6-7---679---9---9------| 
C#|----------------5~~-4-5-7~~-5-7-----7------------------| 
                                                     + 

c#|-------0--------0-----------------0~--------------------------| 
G#|---------0------------------------0~--------------------------| 
E |-----9-------10-------------------0~--------------------------| 
B |--10-------10-------------------------542-----------4---7--2--| 
F#|------------------2-----4---5/7----------53-3p2-2p3-----------| 
C#|------------------0---0-2-0-3/5-0-------------------2---5--0--| 
                         .   .     .                 

c#|--0~~~~~~~0~~~~~~~0~~~~~~~~~~~---------------------------------------------| 
G#|--0~~~~~~~0~~~~~~~0~~~~~~~~~~~---------------------------------------------| 
E |--9-9-9-9-7-7-7-7----------------------------------------------------------| 
B |--9-9-9-9-7-7-7-7-7-7-7-7-7-7----------------------------------------------| 
F#|--7-7-7-7-5-5-5-5-7-7-7-7-7-7---------10-10-10-10-10-10-10-10-10-10-12-12--| 
C#|--7-7-7-7-5-5-5-5-5-5-5-5-5-5-5-4-5-7-8--8--8--8--8--8--8--8--8--8--10-10--| 


c#|--------------------------------------12-11~~~| 
G#|--7-8-10------------12-13----------12~~~~~~~~~| 
E |---------9-8-11-9-8-------12-12h14------------| 
B |----------------------------------------------| 
F#|----------------------------------------------| 
C#|----------------------------------------------| 


c#|-------0--------0-----------------0~-------------------| 
G#|---------0------------------------0~-------------------| 
E |-----9-------10-------------------0~-------------------| 
B |--10-------10-------------------------542--------------| 
F#|------------------2-----4---5/7----------53-3p2-2p3----| 
C#|------------------0---0-2-0-3/5-0-------------------2--| 
                         .   .     .                   +  

c#|------0-------0----------------------------------------| 
G#|--------0----------------------------------------------| 
E |----5-------5------------------------------------------| 
B |--5-------4-------------------------------8---9---11---| 
F#|--------------------------------6-7---679---9---9------| 
C#|----------------5~~-4-5-7~~-5-7-----7------------------| 
                                                     + 

c#|-------0--------0-----------------0~--------------------------| 
G#|---------0------------------------0~--------------------------| 
E |-----9-------10-------------------0~--------------------------| 
B |--10-------10-------------------------542-----------4---7--2--| 
F#|------------------2-----4---5/7----------53-3p2-2p3-----------| 
C#|------------------0---0-2-0-3/5-0-------------------2---5--0--| 
                         .   .     . 

c#|--0~~~~~~~0~~~~~~~0~~~~~~~~~~~---------------------------------------------| 
G#|--0~~~~~~~0~~~~~~~0~~~~~~~~~~~---------------------------------------------| 
E |--9-9-9-9-7-7-7-7----------------------------------------------------------| 
B |--9-9-9-9-7-7-7-7-7-7-7-7-7-7----------------------------------------------| x2 
F#|--7-7-7-7-5-5-5-5-7-7-7-7-7-7---------10-10-10-10-10-10-10-10-10-10-12-12--| 
C#|--7-7-7-7-5-5-5-5-5-5-5-5-5-5-5-4-5-7-8--8--8--8--8--8--8--8--8--8--10-10--| 


c#|--------------------------------------12-11~~~| 
G#|--7-8-10------------12-13----------12~~~~~~~~~| 
E |---------9-8-11-9-8-------12-12h14------------| 
B |----------------------------------------------| 
F#|----------------------------------------------| 
C#|----------------------------------------------| 


c#|--0-0-0-0-0-0---0-0-0-0-0-0---0-0-0-0---0-0-0-0-------------0~~~~~~~~~~~---| 
G#|--0-0-0-0-0-0---0-0-0-0-0-0---0-0-0-0---0-0-0-0---6~~~~~~~---0~~~~~~~~~~---| 
E |--9-9-9-9-9-7---7-7-7-7-7-5---5-5-5-4---7-7-5-4---7~~~~~~~----5~~~~~~~~~---| 
B |--9-9-9-9-9-9---7-7-7-7-7-7---5-5-5-5---7-7-7-5---7~~~~~~~-----7~~~~~~~~---| 
F#|--------------------------------------------------0~~~~~~~------0~~~~~~~---| 
C#|---------------------------------------------------------------------------| 


c#|---------------------------------------------------| 
G#|---------------------------------------------------| 
E |---------------------------------------------------| 
B |--8p5-5-------------------8p5-5--------------------| 
F#|--------7~~~5-4-----------------7~~~5-4------------| 
C#|----------------6-5p3-3~~~--------------6-5p3-3~~~-| 


c#|-----------------------------------------------------------------------| 
G#|-----------------------------------------------------------------------| 
E |-----------------------------------------------------------------------| 
B |-----------------------------------------------------------------------| 
F#|-----------------------------------------------------------------------| x4 
C#|--5-5-5-5---5-5-5-3-5-5--------------5-5-5-5-------5-5-5-5---5-5-3-5---| 


c#|---------------------------------------------------| 
G#|---------------------------------------------------| 
E |---------------------------------------------------| 
B |--8p5-5-------------------8p5-5--------------------| 
F#|--------7~~~5-4-----------------7~~~5-4------------| 
C#|----------------6-5p3-3~~~--------------6-5p3-3~~~-| 


c#|-----------------------------------------------------------------------------|-\ 
G#|-----------------------------------------------------------------------------|  \ 
E |-----------------------------------------------------------------------------|   | 
B |-----------------------------------------------------------------------------|x2 | 
F#|-12/14--14----17----15----14\12------------9/10--9-----5/7-------------------|   | 
C#|-0----0-0-0-0-0-0-0-0-0-0-0----0-0-0-0-000-0---0-0-0-0-0---0-0-0-0-000-0-0---|   | 
         .   . .   . .   . .      . . . . ...     .   . .     . . . . ... . .   | 
                                                                                    | x2 
c#|-----------------------------------------------------------------------------|   | 
G#|-----------------------------------------------------------------------------|   | 
E |-----------------------------------------------------------------------------|x2 | 
B |-----------------------------------------------------------------------------|   | 
F#|-17/19--17----22----21----17\15------------12\10--9-----12/10----------------|  / 
C#|-0----0-0-0-0-0-0-0-0-0-0-0----0-0-0-0-000-0----0-0-0-0-0----0-0-0-0-000-0-0-|-/ 
         .   . .   . .   . .      . . . . ...      .   . .      . . . . ... . . 

c#|-----------------------------------------------------------------------------| 
G#|-----------------------------------------------------------------------------| 
E |-0h2---2-----0h2---2-----0h2-------------0h2---2-----0h2---------------------| 
B |-0h2-2-2-2-2-0h2-2-2-2-2-0h2-2-2-2-2-222-0h2-2-2-2-2-0h2-2-2-2-2-222-2-2-2-2-| 
F#|-0---0-0-0-0-0---0-0-0-0-0---0-0-0-0-000-0---0-0-0-0-0---0-0-0-0-000-0-0-0-0-| 
C#|-----------------------------------------------------------------------------| 
        .   . .     .   . .     . . . . ...     .   . .     . . . . ... . . . . 

c#|--------------------------------| 
G#|--------------------------------| 
E |--6-----------------6-----------| 
B |--x-----------------x---7---8---| 
F#|--4-----------------4---x---x---| 
C#|------------------------5---6---| 


c#|---------------------------------------------------------------------------| 
G#|---------------------------------------------------------------------------| 
E |---------------------------------------------------------------------------| 
B |---------------------------------------------------------------------------| 
F#|--5--4-----5--3-----5--4-----5--3-----5--4-----5--3-----5--4-----5--4------|  
C#|--5--4-----5--3-----5--4-----5--3-----5--4-----5--3-----5--4-----5--4------| 


c#|---------------------------------------------------------------------------| 
G#|---------------------------------------------------------------------------| 
E |---------------------------------------------------------------------------| 
B |---------------------------------------------------------------------------| 
F#|--5--4-----5--3-----5--4-----5--3-----5--4-----5--3-----5554-----5553------|  
C#|--5--4-----5--3-----5--4-----5--3-----5--4-----5--3-----5554-----5553------| 
                                                           ...      ... 

c#|---------------------------------------------------------------------------| 
G#|---------------------------------------------------------------------------| 
E |---------------------------------------------------------------------------| 
B |---------------------------------------------------------------------------| 
F#|--5--4-----5--3-----5--4-----5--3-----5--4-----5--3-----5--4-----5--4------|  
C#|--5--4-----5--3-----5--4-----5--3-----5--4-----5--3-----5--4-----5--4------| 
     .  .     .  .     .  .     .  .     .  .     .  .     .  .     .  . 

c#|---------------------------------------------------------------------------| 
G#|---------------------------------------------------------------------------| 
E |---------------------------------------------------------------------------| 
B |---------------------------------------------------------------------------| 
F#|--5--4---4-5--3---3-5--4---4-5--3---3-5--4---4-5--3---3-5--4---4-5--3------|  
C#|--5--4---4-5--3---3-5--4---4-5--3---3-5--4---4-5--3---3-5--4---4-5--3------| 
     .  .   . .  .   . .  .   . .  .   . .  .   . .  .   . .  .   . .  . 

c#|----------------------9-9-9-------9-------9--------| 
G#|----------------------8-8-8-------8-------8--------| 
E |----------------------6-6-6-------6-------6--------| 
B |---------------------------------------------------| 
F#|--5-5553---0-4-------------------------------------| 
C#|--5-5553---0-4-------------------------------------| 
     . ...    . 

c#|---------------------------------------------------| 
G#|---------------------------------------------------| 
E |---------------------------------------------------| 
B |--8p5-5-------------------8p5-5--------------------| 
F#|--------7~~~5-4-----------------7~~~5-4------------| 
C#|----------------6-5p3-3~~~--------------6-5p3-3~~~-| 


c#|---------------------------------------------------------------------------|-\ 
G#|---------------------------------------------------------------------------|  \ 
E |---------------------------------------------------------------------------|  | 
B |--------------------------------------------------------7-6----------------|  | 
F#|----4-----4-----4---------1-1-1-1-1-1-111-1-1-7-4-------5-4----------------|  | 
C#|--3---0-3---0-3---6b--3~~-0-0-0-0-0-0-000-0-0-----6-3-0--------------------|  | 
     .   . .   . .           . . . . . . ... . .         .                       | 
                                                                                 | x2 
c#|---------------------------------------------------------------------------|  | 
G#|---------------------------------------------------------------------------|  | 
E |---------------------------------------------------------------------------|  | 
B |------------------------------------------------------------7-6------------|  | 
F#|----4-----4-----4-----------5-8-------------------7-4-------5-4------------|  / 
C#|--3---0-3---0-3---6b--3~~-0-----6-5-0-3---5---6-------6-3-0----------------|-/ 
     .   . .   . .           .         .                     . 

c#|---------------------------------------------------------------------------|-\ 
G#|---------------------------------------------------------------------------|  \ 
E |---------------------------------------------------------------------------|  | 
B |---------------------------------------------------------------------------|  | 
F#|----4-----4-----4---------1-1-1-1-1-1-111-1-1---------1-1-1-1-1-1-111-1-1--|  | 
C#|--3---0-3---0-3---6b--3~~-0-0-0-0-0-0-000-0-0-6b--3~~-0-0-0-0-0-0-000-0-0--|  | 
     .   . .   . .           . . . . . . ... . .         . . . . . . ... . .     | 
                                                                                 | x2 
c#|---------------------------------------------------------------------------|  | 
G#|---------------------------------------------------------------------------|  | 
E |---------------------------------------------------------------------------|  | 
B |--------------------------------------7-6----------------------------------|  | 
F#|------------5-8-------------7-4-------5-4----------------------------------|  / 
C#|--6b--3~~-0-----6b--3-5-6-------6-3-0--------------------------------------|-/ 
             .                         . 

c#|------------------------------------| 
G#|------------------------------------| 
E |------------------------------------| 
B |------------------------------------| 
F#|----4-----4-----4---7-----7-----7---| 
C#|--3---0-3---0-3---3---0-3---0-3-----| 
     .   . .   . .   .   . .   . . 

c#|---------------------------------------------------|-\ 
G#|--------------------------------------------9---8--|  \ 
E |------------------------------------9-8-7-6---6----|  | 
B |--8p5-5-------------------8p5-5--------------------|  | 
F#|--------7~~~5-4-----------------7~~~---------------|  | 
C#|----------------6-5p3-3~~~-------------------------|  | 
                                                         | 
                                                         | x2 
c#|---------------------------------------------------|  | 
G#|---------------------------------------------------|  | 
E |---------------------------------------------------|  | 
B |--8p5-5-------------------8p5-5--------------------|  | 
F#|--------7~~~5-4-----------------7~~~5-4---5-4-3----|  / 
C#|----------------6-5p3-3~~~--------------6-5-4-3----|-/ 
                                             . . . 

c#|---------------------------------------------------------------------------| 
G#|---------------------------------------------------8-7-6-5-----------------| 
E |--6------------------------------------------------------------------------| Gtr I 
B |--------------------------7---8--------------------------------------------| x4 
F#|--4------------------------------------------------------------------------| 
C#|--------------------------5---6--------------------------------------------| 


c#|----------------------------------------------------------------------9----| 
G#|-------------------------------------6-6-6-5----------------8-10----9------| 
E |----------6--------------------------6-6-6-6-------------------------------| Gtr II 
B |----------7---------5-/9-\6------------------------------------------------| x4 
F#|----------------------------7----------------------------------------------| 
C#|---------------------------------------------------------------------------| 


c#|---------------------------------------------------------------------------| 
G#|---------------------------------------------------------------------------| 
E |--6------------------------------------------------------------------------| Gtr I 
B |--------------------------7---8--------------------------------------------| x2 
F#|--4------------------------------------------------------------------------| 
C#|--------------------------5---6--------------------------------------------| 


c#|-----------------------------------------------| 
G#|-----------------------------------------------| 
E |--12-11-10-9-12-11-10-9-12-11-10-9-12-11-10-9--| Gtr 2 
B |-----------------------------------------------| x2 
F#|-----------------------------------------------| 
C#|-----------------------------------------------| 


c#|-----------------------------------------------------------------------------| 
G#|-----------------------------------------------------------------------------| 
E |-----------------------------------------------------------------------------| 
B |-----------------------------------------------------------------------------| 
F#|-----------------------------------------------------------------------------| 
C#|-3-5---5-----5-----5-----5---5-----5-----3-5---5-----5-----5-----5---5-----5-| 


c#|----------5---------------------3----------| 
G#|------5-----5-----3/5-----5-0-3---0-1-3/5--| 
E |--0-2---2-----2-0-----0-2------------------| 
B |-------------------------------------------| x10 
F#|-------------------------------------------| 
C#|-------------------------------------------| 


c#|--0-0-0-0-0-0---0-0-0-0-0-0---0-0-0-0---0-0-0-0---| 
G#|--0-0-0-0-0-0---0-0-0-0-0-0---0-0-0-0---0-0-0-0---| 
E |--9-9-9-9-9-7---7-7-7-7-7-5---5-5-5-4---7-7-5-4---| 
B |--9-9-9-9-9-9---7-7-7-7-7-7---5-5-5-5---7-7-7-5---| 
F#|--------------------------------------------------| 
C#|--------------------------------------------------| 


c#|--------------------------------------12-11~~~--------| 
G#|--7-8-10------------12-13----------12~~~~~~~~~--------| 
E |---------9-8-11-9-8-------12-12h14--------------------| 
B |------------------------------------------------------| 
F#|------------------------------------------------------| 
C#|------------------------------------------------------| 


c#|--0~~~~~~~0~~~~~~~0~~~~~~~~~~~----------------------------------------| 
G#|--0~~~~~~~0~~~~~~~0~~~~~~~~~~~----------------------------------------| 
E |--9-9-9-9-7-7-7-7-----------------------------------------------------| 
B |--9-9-9-9-7-7-7-7-7-7-7-7-7-7-----------------------------------------| x2 
F#|--7-7-7-7-5-5-5-5-7-7-7-7-7-7---------10-10-10-10-12-9-9-9-9-9-9-9-9--| 
C#|--7-7-7-7-5-5-5-5-5-5-5-5-5-5-5-4-5-7-8--8--8--8--10-7-7-7-7-7-7-7-7--| 


c#|--15----15----15----15----14----14----14----8---8---8---8---8---8---8------| 
G#|-----12----12----12----12----10----10----10---5---5---5---5---5---5---5----| 
E |---------------------------------------------------------------------------| 
B |---------------------------------------------------------------------------| 
F#|---------------------------------------------------------------------------| 
C#|---------------------------------------------------------------------------| 


c#|15-15-15-15-15-15-15-15-----------------14-14-14-14-14-14-14-14-14-14-14-14| 
G#|-----------------------12-12-12-12-11-11-----------------------------------| 
E |---------------------------------------------------------------------------| 
B |---------------------------------------------------------------------------| 
F#|---------------------------------------------------------------------------| 
C#|---------------------------------------------------------------------------| 


c#|--------------------------------------12-11~~~--------| 
G#|--7-8-10------------12-13----------12~~~~~~~~~--------| 
E |---------9-8-11-9-8-------12-12h14--------------------| 
B |------------------------------------------------------| 
F#|------------------------------------------------------| 
C#|------------------------------------------------------| 
 
		  

See also:

tabs Red Hot Chili Peppers - Under the Bridge tabs Eye of the tiger - Eye of the tiger tabs Los Lonely Boys - Heaven tabs Red Hot Chili Peppers - Snow (hey oh) tabs Jeff Buckley - Hallelujah tabs Red Hot Chili Peppers - Venice Queen
e-chords

Other versions:

tabs Between The Buried And Me - Specular Reflection
auto scroll beats size up size down change color hide chords drawings
tab show chords e-chords YouTube Clip e-chords hide all tabs e-chords go to top tab

share