Bethesda Softworks

Elder Scrolls Morrowind Theme

Bethesda Softworks

tabs

by  FERNSANTANA

save to print version add songbook text version e-mail correct tuner
chordsukulelecavacokeyboardtabbassdrumsharmonicaflute Guitar Pro
close

there isn't a video lesson for this song

chords

Elder Scrolls Morrowind Theme

	  		
B|-X--------------------------------------------------------------------------------------------- 
G|------------------------------------------------------------------2--------2-3----2------------ 
D|---------------------3-----------------------------------3-5----3---5----5-------------5----3-- 
A|------------3-5----5---3------------------------3-5----5--------------------------------------- 
E|-3-5-6----6-----------------6-5-3----3-5-6----6------------------------------------------------ 

B|-X--------------------------------------------------------------------------------------------- 
G|-X--------------------------------------------------------------------------------------------- 
D|----------------------------------------------------------------------------------------------- 
A|----6----5----3----5-3------------------------------------3------------------------------------ 
E|-----------------------6----6-5-3----6----5----3----------------------------------------------- 

(Second Part, One String Up) 

B|------------------------------------------------------------------3--------3-4----3------------ 
G|---------------------3-----------------------------------3-5----3---5----5-------------5------- 
D|------------3-5----5---3----5-3-----------------3-5----5--------------------------------------- 
A|-3-5-6----6---------------------3----3-5-6----6------------------------------------------------ 
E|-X--------------------------------------------------------------------------------------------- 

B|-X--------------------------------------------------------------------------------------------- 
G|------3---------------------------------------------------------------------------------------- 
D|-----------6----5----3----5-3------------------------------------------------------------------ 
A|------------------------------6----6-5-3----6----5----3---------------------------------------- 
E|-X--------------------------------------------------------------------------------------------- 

?X? means ?String Not Being Used?  
		  

auto scroll beats size up size down change color hide chords drawings
tab show chords e-chords YouTube Clip e-chords hide all tabs e-chords go to top tab

share