Berri Txarrak

home > Berri Txarrak

Faq Tab

Berri Txarrak

Difficulty: nolevelnolevel

by tarikike

tuner correct add songbook print version text version save to e-mail
chordsukulelecavacokeyboardtabbassdrumsharmonicsflute Guitar Pro
chords

Faq

  		


Intro: 

|--------------------------------------------------------------------|} 
|--------------------------------------------------------------------|} 
|--------------------------------------------------------------------|} 
|--5-5-8-5-5-5-8-5-5-5-8-5-5-8--5-5-8-5-5-5-8-5-5-5-8-5-5-8----------|} 
|--5-5-5-5-5-5-5-5-5-5-5-5-5-5--5-5-5-5-5-5-5-5-5-5-5-5-5-5----------|} 
|--5-5-5-5-5-5-5-5-5-5-5-5-5-5--5-5-5-5-5-5-5-5-5-5-5-5-5-5----------|} 


|--------------------------------------------------------------------|} 
|--------------------------------------------------------------------|} 
|--888888888888------------------------------------------------------|} 
|--888888777777-8-8-0-8-8-8-0-8-8-8-0-8-8-10-12-12-16161616-1212-1212|} 
|--666666666666-8-8-8-8-8-8-8-8-8-8-8-8-8-10-12-12-12121212-1313-1515|} 
|---------------8-8-8-8-8-8-8-8-8-8-8-8-8-10-12-12-12121212-1212-1212|} 


|--------------------------------------------------------------------|} 
|--------------------------------------------------------------------|} 
|--------------------------------------------------------------------|} 
|--5-5-8-5-5-5-8-5-5-5-8-5-5-8---------------------------------------|} 
|--5-5-5-5-5-5-5-5-5-5-5-5-5-5---------------------------------------|} 
|--5-5-5-5-5-5-5-5-5-5-5-5-5-5---------------------------------------|} 


|--------------------------------------------------------------------|} 
|--------------------------------------------------------------------|} 
|--888888888888------------------------------------------------------|} 
|--888888777777-8-810-8-8-810-8-8-810-8-8-10-12-12-16161616-1212-1212|} 
|--666666666666-8-8-8-8-8-8-8-8-8-8-8-8-8-10-12-12-12121212-1313-1515|} 
|---------------8-8-8-8-8-8-8-8-8-8-8-8-8-10-12-12-12121212-1212-1212|} 

Bridge 1: 

|--------------------------------------------------------------------|} 
|--------------------------------------------------------------------|} 
|---------------------------------------------777--------------------|} 
|--5-5-88-77----77-88-77---5-5-88-77----77-88------------------------|} 
|--5-5-------88----------8-5-5-------88------------------------------|} 
|--5-5---------------------5-5---------------------------------------|} 

verse 1: 

|--------------------------------------------------------------------|} 
|--------------------------------------------------------------------|} 
|--------------------------------------------------------------------|} 
|--5-5-8-5-5-5-8-5-5-5-8-5-5-8---------------------------------------|} 
|--5-5-5-5-5-5-5-5-5-5-5-5-5-5---------------------------------------|} 
|--5-5-5-5-5-5-5-5-5-5-5-5-5-5---------------------------------------|} 
 Neurtu al duzu?                                                            x2 

|--------------------------------------------------------------------|} 
|--------------------------------------------------------------------|} 
|--888888888888------------------------------------------------------|} 
|--888888777777-8-810-8-8-810-8-8-810-8-8-10-12-12-16161616-1212-1212|} 
|--666666666666-8-8-8-8-8-8-8-8-8-8-8-8-8-10-12-12-12121212-1313-1515|} 
|---------------8-8-8-8-8-8-8-8-8-8-8-8-8-10-12-12-12121212-1212-1212|} 
                                                 ?Tarteko distantzia 


Bridge 2: 
|--------------------------------------------------------------------|} 
|--------------------------------------------------------------------|} 
|--------------------------------------------------------------------|} 
|--6-5-5--5-5-5--5-5-5--5-5-5--6-5-5--5-5-5--5-5-5--5-5-5------------|} 
|--6-5-5--5-5-5--5-5-5--5-5-5--6-5-5--5-5-5--5-5-5--5-5-5------------|} 
|--6-5-5--5-5-5--5-5-5--5-5-5--6-5-5--5-5-5--5-5-5--5-5-5------------|} 
                               Inoiz? 

|--------------------------------------------------------------------|} 
|--------------------------------------------------------------------|} 
|----------------------------------------------------777-------------|} 
|--6-5-5--5-5-5--5-5-5--5-5-5--6-5---88-77----77-88------------------|} 
|--6-5-5--5-5-5--5-5-5--5-5-5--6-5---------88------------------------|} 
|--6-5-5--5-5-5--5-5-5--5-5-5--6-5-----------------------------------|} 
   Inoiz?. 

verse 2: 
|--------------------------------------------------------------------|} 
|--------------------------------------------------------------------|} 
|--------------------------------------------------------------------|} 
|--5-5-8-5-5-5-8-5-5-5-8-5-5-8---------------------------------------|} 
|--5-5-5-5-5-5-5-5-5-5-5-5-5-5---------------------------------------|} 
|--5-5-5-5-5-5-5-5-5-5-5-5-5-5---------------------------------------|} 
   Aurkitu al duzu inoiz?                                                    x2 

|--------------------------------------------------------------------|} 
|--------------------------------------------------------------------|} 
|--888888888888------------------------------------------------------|} 
|--888888777777-8-810-8-8-810-8-8-810-8-8-10-12-12-16161616-1212-1212|} 
|--666666666666-8-8-8-8-8-8-8-8-8-8-8-8-8-10-12-12-12121212-1313-1515|} 
|---------------8-8-8-8-8-8-8-8-8-8-8-8-8-10-12-12-12121212-1212-1212|} 
                                          ?bilatzen zenuena 

Chorus: 

(Clean) (figure the strumming) 

|--------------------------------------------------------------------|} 
|--------------------------------------------------------------------|} 
|--------------------------------------------------------------------|} 
|--17-17-17-17--17-17-17-17--16-16-16-16--20-20-22-22----------------|} 
|--13-13-13-13--15-15-15-15--12-12-12-12--17-17-17-17----------------|} 
|--13-13-13-13--15-15-15-15--12-12-12-12--17-17-17-17----------------|} x2 
   Kalkulatu al duzu?                 ?horren neurria 

(Overdrive) 

|--------------------------------------------------------------------|} 
|--------------------------------------------------------------------|} 
|--------------------------------------------------------------------|} 
|--17-17-17-17--17-17-17-17--16-16-16-16--20-20-22-22----------------|} 
|--13-13-13-13--15-15-15-15--12-12-12-12--17-17-17-17----------------|} 
|--13-13-13-13--15-15-15-15--12-12-12-12--17-17-17-17----------------|} x2 
   Ta inoiz?                              ?doitu gabe 


Bridge 3: 

|--------------------------------------------------------------------|} 
|--------------------------------------------------------------------|} 
|--------------------------------------------------------------------|} 
|--6-5-5--5-5-5--5-5-5--5-5-5--6-5-5--5-5-5--5-5-5--5-5-5------------|} 
|--6-5-5--5-5-5--5-5-5--5-5-5--6-5-5--5-5-5--5-5-5--5-5-5------------|} 
|--6-5-5--5-5-5--5-5-5--5-5-5--6-5-5--5-5-5--5-5-5--5-5-5------------|} x2 

verse 3: 

|--------------------------------------------------------------------|} 
|--------------------------------------------------------------------|} 
|--------------------------------------------------------------------|} 
|--13-12-12--12-12-12--12-12-12--12-12-12----------------------------|} 
|--13-12-12--12-12-12--12-12-12--12-12-12----------------------------|} 
|--13-12-12--12-12-12--12-12-12--12-12-12----------------------------|} x3 
   Inoiz ihes egitea? 
|--------------------------------------------------------------------|} 
|--------------------------------------------------------------------|} 
|--------------------------------------------------------------------|} 
|--13-12--10-8--5-4--3-2---------------------------------------------|} 
|--13-12--10-8--5-4--3-2---------------------------------------------|} 
|--13-12--10-8--5-4--3-2---------------------------------------------|} 


Chorus: 
|--------------------------------------------------------------------|} 
|--------------------------------------------------------------------|} 
|--------------------------------------------------------------------|} 
|--17-17-17-17--17-17-17-17--16-16-16-16--20-20-22-22----------------|} 
|--13-13-13-13--15-15-15-15--12-12-12-12--17-17-17-17----------------|} 
|--13-13-13-13--15-15-15-15--12-12-12-12--17-17-17-17----------------|} x4 
   Ta kalkulatu al duzu?              ?horren neurria 


(Here appears a second guitar) 

Guitar 1 

verse 4: 

|--------------------------------------------------------------------|} 
|--------------------------------------------------------------------|} 
|---------------------------------19-19------------------------------|} 
|--17-17---16-16---20-20--20-20---20-20------------------------------|} 
|--13-13---12-12---17-17--17-17---17-17------------------------------|} 
|--13-13---12-12---17-17--17-17---17-17------------------------------|} x3 
   Inoiz erre zintuen? 
                                                                              x4 
|--------------------------------------------------------------------|} 
|--------------------------------------------------------------------|} 
|--------------------------------------------------------------------|} 
|--17-17---16-16---20-20--20-20---19-19------------------------------|} 
|--13-13---12-12---17-17--17-17---15-15------------------------------|} 
|--13-13---12-12---17-17--17-17---15-15------------------------------|} 
                     ?oinarrizko legea 

Outro: 


|--------------------------------------------------------------------|} 
|--------------------------------------------------------------------|} 
|---------------------------------19-19------------------------------|} 
|--17-17---16-16---20-20--20-20---20-20------------------------------|} 
|--13-13---12-12---17-17--17-17---17-17------------------------------|} 
|--13-13---12-12---17-17--17-17---17-17------------------------------|} x3 
   Ikastearen dema? 

|--------------------------------------------------------------------|} 
|--------------------------------------------------------------------|} 
|--------------------------------------------------------------------|} 
|--17-17---16-16---20-20--20-20---19-19------------------------------|} 
|--13-13---12-12---17-17--17-17---15-15------------------------------|} 
|--13-13---12-12---17-17--17-17---15-15------------------------------|} 
                        ?ber gauza dira 

Guitar 2 

(Starts at the second repetition of guitar 1 verse 4) 

|--------------------------------------------------------------------|} 
|--------------------10-11--10-----10--------------------------------|} 
|--------------10-12-----------10------------------------------------|} 
|--------10-12------------------------12-----------------------------|} 
|--10-13-------------------------------------------------------------|} 
|--------------------------------------------------------------------|} 
                                                                             x2 
|--------------------------------------------------------------------|} 
|--------------------10-11-10----------------------------------------|} 
|--------------10-12----------12-10----------------------------------|} 
|--------10-12----------------------12-10----------------------------|} 
|--10-13----------------------------------13-12----------------------|} 
|--------------------------------------------------------------------|} 

(stop playing) 

|--------------------------------------------------------------------|} 
|-----------------------11-10----------------------------------------|} 
|-----------------------------12-10----------------------------------|} 
|--------------------12-------------12-10----------------------------|} 
|-----------------------------------------13-12----------------------|} 
|--------------------------------------------------------------------|} 


|-----15----17----18----17----15-------------------------------------|} 
|--15----15----15----15----15----------------------------------------|} 
|--------------------------------------------------------------------|} 
|--------------------------------------------------------------------|} 
|--------------------------------------------------------------------|} 
|--------------------------------------------------------------------|} x3 

|-----15----17-------------------------------------------------------|} 
|--15----15----15-11-10----------------------------------------------|} 
|-----------------------12-10----------------------------------------|} 
|-----------------------------12-10----------------------------------|} 
|-----------------------------------13-12----------------------------|} 
|--------------------------------------------------------------------|} 
	  

Search Paypal
auto scroll beats size up size down change color hide chords drawings
tab show chords e-chords YouTube Clip e-chords hide all tabs e-chords go to top tab