Ben Howard

In Dreams

Ben Howard

tabs

by  ADALGOMES

save to print version add songbook text version e-mail correct tuner
chordsukulelecavacokeyboardtabbassdrumsharmonicaflute Guitar Pro
close

there isn't a video lesson for this song

chords

In Dreams

	  		

D|-------------------|------------------|------------------|-------------------| 
A|---------7p0-------|-----------0------|------------------|-----------0-------| 
G|-------0------0----|-------0----------|-------0-------0--|-------0-----------| 
D|-----7----------0--|-----0---------0--|-----0-------0----|-----0---------0---| 
A|--8----------------|------------------|---------3p0------|-------------------| 
D|-/-----------------|--8------8---8----|--5---------------|--0------0---0-----| 

D|-------------------|------------------|------------------|-------------------| 
A|---------7p0-------|-----------0------|------------------|-----------0-------| 
G|-------0------0----|-------0----------|-------0-------0--|-------0-----------| 
D|-----7----------0--|-----0---------0--|-----0-------0----|-----0---------0---| 
A|--8----------------|------------------|-----------0------|-------------------| 
D|-/-----------------|--8------8---8----|--5------3--------|--0------0---0-----| 



2ND PATTERN 

D|-----------------|-----------------|-----------------|---------------------| 
A|----------0------|----------0------|----------0------|----------0----------| 
G|------0----------|------0----------|------0----------|------0--------------| 
D|----0---------0--|----0---------0--|----0---------0--|----0---------0------| 
A|-----------------|-----------------|-----------------|---------------------| 
D|--3-----3---3----|--5-----5---5----|--3-----3---3----|--2-----2---2--------| 

D|-----------------|-----------------|-----------------|---------------------| 
A|----------0------|----------0------|-----------------|----------0----------| 
G|------0----------|------0----------|------0-----0----|------0--------------| 
D|----0---------0--|----0---------0--|----0-----0------|----0---------0------| 
A|-----------------|-----------------|-----------------|---------------------| 
D|--3-----3---3----|--2-----2---2----|--3-----2--------|--0-----0---0--------| 



3RD PATTERN 

D|----------0------|----------0------|----------0------|---------0-----------| 
A|-----------------|-----------------|-----------------|---------------------| 
G|------10---------|------9----------|------7----------|------5--------------| 
D|----7---------7--|----7---------7--|----7---------7--|----7---------7------| 
A|-----------------|--0-----0---0----|-----------------|--0-----0---0--------| 
D|--0-----0---0----|-----------------|--0-----0---0----|---------------------| 


4TH PATTERN 
                 x4                x4 
D|------0----------|-----------------|    These bars repeat x8 and x4 again 
A|----------0------|----------0------| 
G|----2---------2--|------0----------| 
D|-----------------|----0---------0--| 
A|--2-----2---2----|-----------------| 
D|-----------------|--0-----0---0----| 


5TH PATTERN 

D|-----------0-----|----------0------|----------0------|----------0----------| 
A|------3----------|------3----------|------2----------|------0--------------| 
G|-----------------|-----------------|-----------------|---------------------| 
D|----0---------0--|----0---------0--|----0---------0--|----0---------0------| 
A|-----------------|-----------------|-----------------|---------------------| 
D|--5-----5---5----|--5-----5---5----|--5-----5---5----|--5-----5---5--------| 

These are all the patterns you need. Listen to the song to hear where and how 
they are used! 


************************************ 

| /   slide up 
| \   slide down 
| h   hammer-on 
| p   pull-off 
| ~   vibrato 
| +   harmonic 
| x   Mute note 
| b   Bend 
| pb  Pre-Bend 
| br  Bend release 
| pbr Pre-Bend release 
| brb Bend release Bend 

************************************ 
		  

See also:

tabs Blur - Coffee And TV tabs Ben Howard - Oats In The Water tabs Oasis - Stop crying your heart out tabs Jethro Tull - Mother Goose tabs Stone Temple Pilots - Interstate love song tabs Jethro Tull - Locomotive Breath Beginning
e-chords

Other versions:

tabs Ben Howard - In Dreams tabs Roy Orbison - In Dreams
auto scroll beats size up size down change color hide chords drawings
tab show chords e-chords YouTube Clip e-chords hide all tabs e-chords go to top tab

share