Ben Howard

I Will Be Blessed

Ben Howard

tabs Expert expert

by  ALEFFEDERICO

save to print version add songbook text version e-mail correct tuner
chordsukulelecavacokeyboardtabbassdrumsharmonicaflute Guitar Pro
close

there isn't a video lesson for this song

chords

I Will Be Blessed

	  		
 


Intro 
C||---4p2-------------4p2----------------4p2--------------4p2-------------| 
G||------0---4p0--0------0----4p0-0---------0---4p0-0--------0---4p0-0----| 
G||-------0-----0--------0------0-----------0-----0----------0-----0------| 
C||-----------------------------------------------------------------------| 
G||-----------------------------------------------------------------------| 
C||---0------0-----0---0-------0-----0---2------2-----2---2------2-----2--| 


C||----4p2-------------4p2------------------------------------------------| 
G||-------0---4p0--0------0----4p0-0-----------2--------2p0---------------| 
G||--------0------0--------0------0---------0-----0--0------0-------------| 
C||----------------------------------------0--------0--------0------------| 
G||-----------------------------------------------------------------------| 
C||----0------0-----0---0-------0-----0---2---2--2----2-------------------| 


Verses 
C||---4p2-------------4p2----------------4p2--------------4p2-------------| 
G||------0---4p0--0------0----4p0-0---------0---4p0-0--------0---4p0-0----| 
G||-------0-----0--------0------0-----------0-----0----------0-----0------| 
C||-----------------------------------------------------------------------| 
G||-----------------------------------------------------------------------| 
C||---0------0-----0---0-------0-----0---2------2-----2---2------2-----2--| 


C||----4p2-------------4p2------------------------------------------------| 
G||-------0---4p0--0------0----4p0-0-----------2--------2p0---------------| 
G||--------0------0--------0------0---------0-----0--0------0-------------| 
C||----------------------------------------0--------0--------0------------| 
G||-----------------------------------------------------------------------| 
C||----0------0-----0---0-------0-----0---2---2--2----2-------------------| 


C||---4p2-------------4p2----------------4p2--------------4p2-------------| 
G||------0---4p0--0------0----4p0-0---------0---4p0-0--------0---4p0-0----| 
G||-------0-----0--------0------0-----------0-----0----------0-----0------| 
C||-----------------------------------------------------------------------| 
G||-----------------------------------------------------------------------| 
C||---0------0-----0---0-------0-----0---2------2-----2---2------2-----2--| 


C||----4p2-------------4p2------------------------------------------------| 
G||-------0---4p0--0------0----4p0-0------2--2--2--2----------------------| 
G||--------0------0--------0------0-------0--0--0--0----------------------| 
C||-----------------------------------------------------------------------| 
G||-----------------------------------------------------------------------| 
C||----0------0-----0---0-------0-----0---2--2--2--2----------------------| 


Interlude Between Verses and Chorus 
C||---4p2-------------4p2----------------4p2--------------4p2-------------| 
G||------0---4p0--0------0----4p0-0---------0---4p0-0--------0---4p0-0----| 
G||-------0-----0--------0------0-----------0-----0----------0-----0------| 
C||-----------------------------------------------------------------------| 
G||-----------------------------------------------------------------------| 
C||---0------0-----0---0-------0-----0---2------2-----2---2------2-----2--| 


C||----4p2-------------4p2------------------------------------------------| 
G||-------0---4p0--0------0----4p0-0-----------2-------2-------2-------2--| 
G||--------0------0--------0------0---------0-----0--0----0--0----0--0--0-| 
C||----------------------------------------0--------0-------0-------0----0| 
G||-----------------------------------------------------------------------| 
C||----0------0-----0---0-------0-----0---2---2--2----2--2----2--2----2--| 

Chorus (Ben does a pick/strum pattern here, so just listen to the track to pick it out) 
C||--------------------------------------------| 
G||--------------------------------------------| 
G||---2----4--5----4---7----4---5--------------| 
C||--------------------------------------------| 
G||---2----4--5----4---7----4---5--------------| 
C||--------------------------------------------| 


Bridge (Strummed) 
C||--------------------------------------------| 
G||--------------------------------------------| 
G||----5----4----5----2------------------------| 
C||----4---------------------------------------| (3x) 
G||----5----0----2-----------------------------| 
C||---------x---------5------------------------| 
 
		  

auto scroll beats size up size down change color hide chords drawings
tab show chords e-chords YouTube Clip e-chords hide all tabs e-chords go to top tab

share