Ben Howard

Figure 8

Ben Howard

tabs Easy easy

by  JESSGOMES

save to print version add songbook text version e-mail correct tuner
chordsukulelecavacokeyboardtabbassdrumsharmonicaflute Guitar Pro
close

there isn't a video lesson for this song

chords

Figure 8

	  		
INTRO: 
C|----------------------------| 
G|----------------------------| 
G|----------------------------| 
C|----------------------------|  
G|--7~---------5~---------3~--| 
C|--7~---------5~---------3~--| 


C|---------------------------------------| 
G|---------------------------------------| 
G|---------------------------------------| 
C|---------------------------------------|  x 2 
G|--7~---------5~---------3~---------5~--| 
C|--7~---------5~---------3~---------5~--| 


C|-----------------| 
G|-----------------| 
G|-----------------| 
C|-----------------| 
G|--3~---------5~--| 
C|--3~---------5~--| 

  "Chase your love around figure 8..........." 
C|----------12-----------------12----------------7----------------7---------| 
G|-----------------12-----------------12----------------7----------------7--| 
G|-----12-----------------12-----------------7----------------7-------------| 
C|---12----------12-----12----------12-----7----------7-----7----------7----|  x 6 
G|--------------------------------------------------------------------------| 
C|-0------0----0------0------0----0------7-----7----7-----5-----5----5------| 


C|--------------------| 
G|----------5------5--| 
G|------5-------------| 
C|---5-----------5----| x 4 
G|--------------------| 
C|-3------3----3------| 

NOTE: When the fingerpicking starts, start quietly and work it up. 
C|---------------------------------------------------------------------------------------------| 
G|----------------0------------------------------------------------------------------7------7--| 
G|--------------------0----------------------------------------------------------7-------------| 
C|-----------------------------------------------------------------------------7----------7----|  
G|--7~---------5~---------3~---------5~--------7~--------5~--------3~--------------------------| 
C|--7~---------5~---------3~---------5~--------7~--------5~--------3~--------5-----5----5------| 


C|---------------------------------------------------------------------------------------| 
G|---------7------7---------5------5---------5------5---------7------7---------7------7--| 
G|-----7----------------5----------------5----------------7----------------7-------------| 
C|---7----------7-----5----------5-----5----------5-----7----------7-----7----------7----| 
G|---------------------------------------------------------------------------------------| 
C|-5-----5----5-----3-----3----3-----3-----3----3-----5-----5----5-----5-----5----5------| 


C|----------12-----------------12----------------7----------------7---------| 
G|-----------------12-----------------12----------------7----------------7--| 
G|-----12-----------------12-----------------7----------------7-------------| 
C|---12----------12-----12----------12-----7----------7-----7----------7----|   x 6 
G|--------------------------------------------------------------------------| 
C|-0------0----0------0------0----0------7-----7----7-----5-----5----5------| 


C|-----------------------------------------------------------------------| 
G|----------5------5---------5------5---------7------7---------7------7--| 
G|------5----------------5----------------7----------------7-------------| 
C|----5----------5-----5----------5-----7----------7-----7----------7----| x 4 
G|-----------------------------------------------------------------------| 
C|--3-----3----3-----3-----3----3-----5-----5----5-----5-----5----5------| 


C|-------------------------------------| 
G|----------7------7---------7------7--| 
G|------7----------------7-------------| 
C|----7----------7-----7----------7----|  
G|-------------------------------------| 
C|--5-----5----5-----5-----5----5------| 


C|----------12-----------------12----------------7----------------7---------| 
G|-----------------12-----------------12----------------7----------------7--| 
G|-----12-----------------12-----------------7----------------7-------------| 
C|---12----------12-----12----------12-----7----------7-----7----------7----|   x 6 
G|--------------------------------------------------------------------------| 
C|-0------0----0------0------0----0------7-----7----7-----5-----5----5------| 


C|-----------------------------------------------------------------------| 
G|----------5------5---------5------5---------7------7---------7------7--| 
G|------5----------------5----------------7----------------7-------------| 
C|----5----------5-----5----------5-----7----------7-----7----------7----| x 4 
G|-----------------------------------------------------------------------| 
C|--3-----3----3-----3-----3----3-----5-----5----5-----5-----5----5------| 


C|-------------------------------------| 
G|----------7------7---------7------7--| 
G|------7----------------7-------------| 
C|----7----------7-----7----------7----|  
G|-------------------------------------| 
C|--5-----5----5-----5-----5----5------| 


C|----------12-----------------12----------------7----------------7---------| 
G|-----------------12-----------------12----------------7----------------7--| 
G|-----12-----------------12-----------------7----------------7-------------| 
C|---12----------12-----12----------12-----7----------7-----7----------7----|  x 11 
G|--------------------------------------------------------------------------| 
C|-0------0----0------0------0----0------7-----7----7-----5-----5----5------| 

OUTRO: 
C|-----------------------------------------------------------------------| 
G|----------5------5---------5------5---------7------7---------7------7--| 
G|------5----------------5----------------7----------------7-------------| 
C|----5----------5-----5----------5-----7----------7-----7----------7----| x 4 
G|-----------------------------------------------------------------------| 
C|--3-----3----3-----3-----3----3-----5-----5----5-----5-----5----5------| 


C|---------------------------------------------------7---------------------------------------| 
G|----------7------7---------7------7-----------7--------------------------------------------| 
G|------7----------------7--------------------7----------------------------------------------| 
C|----7----------7-----7----------7---------7------------------------------------------------|  
G|-------------------------------------------------------------------------------------------| 
C|--5-----5----5-----5-----5----5-------7~---------------------------------------------------| 
 
		  

See also:

tabs Blur - Coffee And TV tabs Ben Howard - Oats In The Water tabs Oasis - Stop crying your heart out tabs Jethro Tull - Mother Goose tabs Stone Temple Pilots - Interstate love song tabs Jethro Tull - Locomotive Breath Beginning
e-chords

Other versions:

tabs Ben Howard - Figure 8
auto scroll beats size up size down change color hide chords drawings
tab show chords e-chords YouTube Clip e-chords hide all tabs e-chords go to top tab

share