Ben Howard

Evergreen

Ben Howard

tabs

by  FERNSANTANA

save to print version add songbook text version e-mail correct tuner
chordsukulelecavacokeyboardtabbassdrumsharmonicaflute Guitar Pro
close

there isn't a video lesson for this song

chords

Evergreen

	  		

intro+ verse 
Final chord (9,7) is strummed. Listen to it for timings. 

C|--0-----------------------7-------10------9---| 
F|----10--9--12--10--9--0-----5h7--9-------7----| 
A#|---------------------------------------------| 
F|----10--9--12--10--9--0-----------------------| 
F|-------------------------------------12-------| 
C|----------------------------------------------| 

Chorus (strummed) 

C|--3--10--9--10----| 
F|-----9---7--9-----| 
A#|-----------------| 
F|------------------| 
F|--2---------------| 
C|------------------| 
		  

See also:

tabs Blur - Coffee And TV tabs Ben Howard - Oats In The Water tabs Oasis - Stop crying your heart out tabs Jethro Tull - Mother Goose tabs Stone Temple Pilots - Interstate love song tabs Jethro Tull - Locomotive Breath Beginning
e-chords

Other versions:

tabs Ben Howard - Evergreen tabs Dark New Day - Evergreen
auto scroll beats size up size down change color hide chords drawings
tab show chords e-chords YouTube Clip e-chords hide all tabs e-chords go to top tab

share