Ben Howard

Esmeralda

Ben Howard

tabs

by  IRONPOWER4EVER

save to print version add songbook text version e-mail correct tuner
chordsukulelecavacokeyboardtabbassdrumsharmonicaflute Guitar Pro
close

there isn't a video lesson for this song

chords

Esmeralda

	  		


Intro/Verse 
C|---0--0--0--0--0--0--0--0--0--0--0--0--0--0---------| 
F|---5--5--5--5--5--5--5--5--5--5--5--5--5--5---------| 
G|--0--0--0--0--0--0--0--0--0--0--0--0--0--0----------| 
B|----4----4-----4--2--0---5-5-5-5-4-4-2-0---------| x2 
G|-0----0-----0---------------------------------------| 
C|----------------------------------------------------| 

Then     
C|---0--0--0--0--0--0--0--0--0--0--0--0?-0--0--0--0--0--0------| 
F|---5--5--5--5--5--5--5--5--5--5--5--5--5--5--5--5--5--5------| 
G|--0--0--0--0--0--0--0--0--0--0--0--0--2--2--2--2--2--2-------| 
B|----4----4----4--2-0--5-5-5-5-5-5-5-5-4-4-4-4-4-4-4-4--------| 
G|-0----0----0-------------------------------------------------| 
C|-------------------------------------------------------------| 

Oh Blinded, Now I see that I could not hold you.  
My orange tree lived in the darkened room  
From three words to share.  

Maybe you were free before my blackened wing covered you  
I took the sing from your song  
I made a bed where you don't belong.  

Chorus 
C|-----------------------?-----------------------------------| 
F|-----------------------------------------------------------| 
G|----0---0---0---0--0--0--0----0--0--0--0--0--0--0--0-------| 
B|----0---0---0---0--0--0--0----0--0--0--0--0--0--0--0-------| x2 
G|---0---0---0---0--0--0--0----0--0--0--0--0--0--0--0--------| 
C|-10--10--10--10--9--9--9?-0-2--2--2--2--4--4--5--5---------| 

then 
C|-----------------------?-------| 
F|-------------------------------| 
G|---0--0--0--0--0--0--0--0------| 
B|---0--0--0--0--0--0--0--0------| 
G|--2--2--2--2--2--2--2--2-------| 
C|-0--0--0--0--0--0--0--0--------| 

Oh pull me, she fell beneath the wheels to help me up. 
Black Sea, I failed to be the light you found in love. 

Oh pull me, she fell beneath the wheels to help me up. 
Black Sea, the monster killed the melody you loved. 

Post-Chorus 
C|-----------------------?----------| 
F|----------------------------------| 
G|-----0--0--0--0--0--0--0--0--0----| 
B|-----0--0--0--0--0--0--0--0--0----| 
G|----5--3--2--3--5--3--2--3--0-----| 
C|--10-10-10-10-10-10-10-10---------| 
And now I'm going places on my own  



Verse II 

Blinded, now I see the death, moves amongst us  
And with such ease surround us  
These silent beasts so hard to bare.  

Lonely, oh no not me  
I have a grave to dig  
Fast moving feet  
You gave me light where it once was gone  
I made a bed, where we don't belong. 

Repeat Chorus + Post-Chorus 

Outro 
C|------------------------------?---------------------| 
F|----------------------------------------------------| 
G|---0--0--0--0--0--0--0--0--0--0--0--0--0--0--0--0---| 
B|---0--0--0--0--0--0--0--0--0--0--0--0--0--0--0--0---| 
G|--0--0--0--0--0--0--0--0--0--0--0--0--0--0--0--0----| 
C|-2--2--2--2--7--5-10-10-10-10--9--9--7--5--2--2-----| 

C|------------------------------?---------------------| 
F|----------------------------------------------------| 
G|---0--0--0--0--0--0--0--0--0--0--0--0--0--0--0--0---| 
B|---0--0--0--0--0--0--0--0--0--0--0--0--0--0--0--0---| 
G|--0--0--0--0--0--0--0--0--0--0--0--0--0--0--0--0----| 
C|-2--2--2--2--7--5-10-10-10-10--9--9?12--9--12-------| 

C|----0--0--0--0--0--0--0--0--0--0--0--0?-0--0--0--0--| 
F|----0--0--0--0--0--0--0--0--0--0--0--0--0--0--0--0--| 
G|---00-00-00-00-00-00-00-00-00-00-00-00-00-00-00-00--| 
B|---0--0--0--0--0--0--0--0--0--0--0--0--0--0--0--0---| 
G|--0--0--0--0--0--0--0--0--0--0--0--0--0--0--0--0----| 
C|-2--2--2--2--7--5-10-10-10-10--9--9--7--5--2--2-----| 

C|----0--0--0--0--0--0--0--0--0--0--0--0?-0--0--0--0--| 
F|----0--0--0--0--0--0--0--0--0--0--0--0--0--0--0--0--| 
G|---00-00-00-00-00-00-00-00-00-00-00-00-00-00-00-00--| 
B|---0--0--0--0--0--0--0--0--0--0--0--0--0--0--0--0---| 
G|--0--0--0--0--0--0--0--0--0--0--0--0--0--0--0--0----| 
C|-2--2--2--2--7--5-10-10-10-10--9--9?12--9--12-------| 

last time 
C|----0--0--0--0--0--0--0--0--0--0--0--0?-0--0--0--0--| 
F|----0--0--0--0--0--0--0--0--0--0--0--0--0--0--0--0--| 
G|---00-00-00-00-00-00-00-00-00-00-00-00-00-00-00-00--| 
B|---0--0--0--0--0--0--0--0--0--0--0--0--0--0--0--0---| 
G|--0--0--0--0--0--0--0--0--0--0--0--0--0--0--0--0----| 
C|-2--2--2--2--7--5-10-10-10-10-10-10-10-10-10-10-----| 

C|----0--0--0--0--0--0---0~--------?---------| 
F|----0--0--0--0--0--0---0~------------------| 
G|---00-00-00-00-00-00---0~------------------| 
B|---0--0--0--0--0--0----0~------------------| 
G|--0--0--0--0--0--0-----0~------------------| 
C|-9--9--9--9--9--9--7-5-2~------------------| 



note: I noticed that it's easier to play the first part like this 
Intro/Verse 
C|---0--0--0--0--0--0--0--0--0--0--0--0--0--0---------| 
F|---5--5--5--5--5--5--5--5--5--5--5--5--5--5---------| 
G|--0--0--0--0--0--0--0--0--0--0--0--0--0--0----------| 
B|----4----4-----4---------5-5-5-5-4-4-------------| x2 
G|-0----0-----0-----5--3---------------5-3------------| 
C|----------------------------------------------------| 
		  

See also:

tabs Blur - Coffee And TV tabs Ben Howard - Oats In The Water tabs Oasis - Stop crying your heart out tabs Jethro Tull - Mother Goose tabs Stone Temple Pilots - Interstate love song tabs Jethro Tull - Locomotive Breath Beginning
e-chords

Other versions:

tabs Ben Howard - Esmeralda
auto scroll beats size up size down change color hide chords drawings
tab show chords e-chords YouTube Clip e-chords hide all tabs e-chords go to top tab

share