Belvedere

High School Heroics

Belvedere

tabs

by  DEIO.PUNXXX

save to print version add songbook text version e-mail correct tuner
chordsukulelecavacokeyboardtabbassdrumsharmonicaflute Guitar Pro
close

there isn't a video lesson for this song

chords

High School Heroics

	  		Legendas:  b   bend 
           h   hammer-on	 
           p   pull-off 
           /   slide crescente  
           ~   deixe soar ( se preferir, um vibrato ) 
           .   nota abafada 
           x   corda abafada 
 
 
Intro  
 
Guita 1                   Guita 2 
e|-----------------------|---------------| 
B|------0----------------|---------------| 
G|-8888-5555-------------|-8--5----------| 
D|-8888-5555-5555-6xx8---|-8--5--5--6-8--| 
A|-6666-3333-5555-6xx8---|-6--3--5--6-8--| 
E|-----------3333-4xx6---|-------3--4-6--| 
 
 
Verso ( 4x )  
 
As duas guitas 
e|--------------------------| 
B|--------------------------| 
G|-8888-5555----------------| 
D|-8888-5555-(5555-6-8)-----| 
A|-6666-3333-(5555-6-8)-----| 
E|-----------(3333-4-6)-----| 
 
Abafe o q tá entre parênteses na segunda e na quarta vez 
 
 
Refrão ( 4x )  
 
As duas guitas dnovo 
e|--------------------------| 
B|--------------------------| 
G|-8888------5555-3333------| 
D|-8888-8888-5555-3333------| 
A|-6666-8888-3333-1111------| 
E|------6666----------------| 
 
 
Repira o verso 
 
Repita o refrão 
 
 
Solo  
 
e|-----------------------------------------------------------------| 
B|-----------------------------------------------------------------| 
G|-15-13-12-13-12-10h12p10-8h10p8-7-8-10b8-7-5-3-0-1-0b3-15-13-12--| 
D|-----------------------------------------------------------------| 
A|-----------------------------------------------------------------| 
E|-----------------------------------------------------------------| 
 
e|-----------------------------------------------------------------| 
B|-16^--15-13--------------toq mt rápido!--------------------------| 
G|------------15-13/12-------(1215139)-10-8-7-8-10-12-10-13-12-13~-| 
D|---------------------13-15---------------------------------------| 
A|-----------------------------------------------------------------| 
E|-----------------------------------------------------------------| 
 
Repita o refrão 
 
Paradim e o outro 
 
e|----------------------------------------------------------| 
B|----------------------------------------------------------| 
G|-8~~---------------------------------------------------8~-| 
D|-8~~-----------------------------------555-555-666-888-8~-| 
A|-6~~-10~~-6-6-8-6~~6-6-8-10~~6-6-8-6~~-555-555-666-888-6~-| 
E|---------------------------------------333-333-444-666----| 
                                         ..  ..  ..  .. 
 
Um abraço pooooooovo... 

		  

See also:

tabs Reset - Pollution tabs Matthew Good - Decades tabs Belvedere - High School Heroics tabs Reset - Planet Earth tabs Matthew Good - Odette tabs The Flatliners - Birds Of England
e-chords

Other versions:

tabs Belvedere - High School Heroics
auto scroll beats size up size down change color hide chords drawings
tab show chords e-chords YouTube Clip e-chords hide all tabs e-chords go to top tab

share